Cifra Club

Prisioneiro do Futuro

Vivendo do Ócio

Cifra: Principal (violão e guitarra)
tom: A
(riff 1)
E|--------------------------------------------------------------------------|
B|------------------------------------2--2--2-------------------------------|
G|---------------------------------------------4--1--4--1-----1--4----------|   
D|---------2---------------4--4--2-------------------------4--------4--2----|
A|----2/4-----4-------2h4---------------------------------------------------|
E|----~----------2h4---------------------------~----------------------------|

E|--------------------------------------------------------------------------|
B|------------------------------------2--2--2-------------------------------|
G|---------------------------------------------4--1--4--1-----1--4------1/6-|  
D|---------2---------------4--4--2-------------------------4--------4-------|
A|----2/4-----4-------2h4---------------------------------------------------|
E|----~----------2h4---------------------------~----------------------------|

C#m                    F#m
Meu passado me condena,   sou prisioneiro do futuro 
                C#m
Na prisão do amanhã, eu sei que eu mudei, eu não segui a lei,
  F#m                             C#m      F#m
Eu me perdi nas linhas da ignorância
                   C#m      F#m
Eu me perdi nas linhas

C#m
Galho seco quebra quando vento passa
F#m
E os que ficam lá são flexíveis
C#m
Não deu pra carregar, eu me deixei levar
F#m                             C#m    F#m
Vivia correndo numa corda bamba
              C#m     F#m
Numa corda bamba

A                   C#m       F#m
Meu silêncio faz de cada erro
                      A
O que agora eu reconheço
                 C#m          F#m
E a cada passo a frente eu vejo
       Bm                 C#m
Que eu tive que pagar o preço
                      F#m
De ser mais um prisioneiro
                      C#m
Eu tive que pagar o preço
                      F#m
De ser mais um prisioneiro
                      C#m
Eu tive que pagar o preço 

(riff 1) 

C#m
Gato preto nunca foi de me atrasar
F#m
Tive que ir a fundo
                       C#m
Como uma pedra em alto mar
C#m
Joguei e me amarrei, só sei que afundei
   F#m                                   C#m   F#m
Eu me perdi nas águas, com minhas lembranças
                  C#m    F#m
Eu me perdi nas águas

A                   C#m       F#m
Meu silêncio faz de cada erro
                      A
O que agora eu reconheço
                 C#m          F#m
E a cada passo a frente eu vejo
       Bm                 C#m
Que eu tive que pagar o preço
                      F#m
De ser mais um prisioneiro
                      C#m
Eu tive que pagar o preço
                      F#m
De ser mais um prisioneiro
                      C#m
Eu tive que pagar o preço
00:00 / 00:00
Outros vídeos desta música
Repetir
Outros vídeos desta música
Compositor não encontrado.
Colaboração e revisão:
  • Vitor Gomes
4.579 exibições
    • ½ Tom
    • A
    • Bb
    • B
    • C
    • Db
    • D
    • Eb
    • E
    • F
    • F#
    • G
    • Ab
  • Adicionar à lista

    0 comentários

    Ver todos os comentários

    Conseguiu tocar?

    9 Tocaram 0 Ainda não

    Grave um vídeo tocando Prisioneiro do Futuro e nos envie!

    Entre para oCifra Club PRO

    Tenha acesso a benefícios exclusivos no App e no Site

    • Chega de anúncios

    • Prioridade de compra em lançamentos

    • Mais recursos no app do Afinador

    • Atendimento Prioritário

    • Descontos nos produtos Cifra Club

    • Ajude a produzir mais conteúdo

    00:00 / 00:00

    Cifra Club Pro

    Aproveite o Cifra Club com benefícios exclusivos e sem anúncios
    Cifra Club Pro
    Aproveite o Cifra Club com benefícios exclusivos e sem anúncios
    OK