Cifra Club

Chuva de Sangue

Voz da Verdade

Cifra: Principal (violão e guitarra)
Selo Cifra Club: esta cifra foi revisada para atender aos critérios oficiais da nossa Equipe de Qualidade.
tom: E
[Intro] E  F#m  A9  E
        E  F#m  A9  E
        C#m  G#m  A9  E
        C#m  G#m  A9  B4  E  E

[Tab - Solo Intro]

Parte 1 de 4
   E      F#m  A9    E
E|------------------------------------|
B|------------------------------------|
G|-------------2-1---1----------------|
D|-2----2-4--------4------------------|
A|----2-------------------------------|
E|------------------------------------|

Parte 2 de 4
   E      F#m    A9     E
E|------------------------------------|
B|------------------------------------|
G|-------------1-2--1---1-------------|
D|-2----2-4--4--------4---------------|
A|----2-------------------------------|
E|------------------------------------|

Parte 3 de 4
   C#m    G#m   A9     E
E|------------------------------------|
B|-5--4---4---------------------------|
G|------6-------6--4-2-4--------------|
D|-----------6------------------------|
A|------------------------------------|
E|------------------------------------|

Parte 4 de 4
   C#m    G#m    A9  B4  E          E
E|------------------------------------|
B|-5--4---4----------5-4-5------------|
G|------6----6-4-6------------4-2-1---|
D|----------------------------------2-|
A|------------------------------------|
E|------------------------------------|

[Primeira Parte]

               F#m  F#m  E/G#
Uma chuva que cai
A9               E   E4  E
  E lava a minha alma
               F#m  F#m  E/G#
Uma chuva que vem
A9            E Riff 1
  Da cruz de jesus

[Tab - Riff 1]

E|---------------------|
B|-5/7\5---------------|
G|-4/6\4--2------------|
D|---------------------|
A|---------------------|
E|---------------------|

E                F#m  F#m  E/G#
 Este sangue que entra
A9           E   E4  E
  Em minhas veias
                 F#m  F#m  E/G#
Que me faz conhecer
A9              E  E4  E Riff 2
  Quem é o meu pai

[Tab - Riff 2]

E|---------------------|
B|-5/7-5---------------|
G|-4/6-4---------------|
D|---------------------|
A|---------------------|
E|---------------------|

[Segunda Parte]

A9              E Riff 3
  Pelas suas feridas

[Tab - Riff 3]

     A9
E|---------------------|
B|---------------------|
G|---------------------|
D|-2-2-----------------|
A|-2-0-----------------|
E|---------------------|

               E   E  F#m  G#m
Eu pude ser sarado
A9                   E5 Riff 4
  Este sangue tem poder

[Tab - Riff 4]

E|---------------------|
B|---------------------|
G|-4---1---------------|
D|---2---2-------------|
A|---------------------|
E|---------------------|

F#m         A9      B Riff 5
   Deixa o medo de la_do

[Tab - Riff 2]

E|---------------------|
B|--------------0------|
G|-----4-4----4---4----|
D|-4-4------4-------4--|
A|---------------------|
E|---------------------|

A9              E Riff 6
  Pelas suas feridas

[Tab - Riff 6]

       A9
E|---------------------|
B|---------------------|
G|-2/4-2---------------|
D|---------------------|
A|-----0---------------|
E|---------------------|

               E   E  F#m  G#m
Eu pude ser sarado
A9                   E5 Riff 7
  Este sangue tem poder

[Tab - Riff 7]

E|---------------------|
B|---------------------|
G|-(4)-----------------|
D|-----2---------------|
A|---------------------|
E|---------------------|

F#m         A9      B
   Deixa o medo de lado

A9         B       E Riff 8
  Deixa o medo de lado

[Tab - Riff 8]

E|---------------------|
B|---------------------|
G|-------2-2-----------|
D|-2-4-4---------------|
A|---------------------|
E|---------------------|

[Refrão]

  E       F#m       A9          E
Chuva de sangue eu sinto aqui cair
 E         F#m     A9         E  B/D#
Lava minha alma e cura o meu ser

 C#m       G#m         A9        E  B/D#
Sangue de Deus que me fez filho seu
 C#m   G#m       A9        B        E
Meu "DNA" tem o código do filho de Deus

  E       F#m       A9          E
Chuva de sangue eu sinto aqui cair
 E         F#m     A9         E  B/D#
Lava minha alma e cura o meu ser

 C#m       G#m         A9        E  B/D#
Sangue de Deus que me fez filho seu
 C#m   G#m       A9        B        E
Meu "DNA" tem o código do filho de Deus

[Solo] E  F#m  A9  E
       E  F#m  A9  E  B/D#
       C#m  G#m  A9  E  B/D#
       C#m  G#m  A9  B4  E  C

[Tab - Solo]

Parte 1 de 4
   E      F#m  A9    E
E|------------------------------------|
B|------------------------------------|
G|-------------2-1---1----------------|
D|-2----2-4--------4------------------|
A|----2-------------------------------|
E|------------------------------------|

Parte 2 de 4
   E      F#m    A9     E
E|------------------------------------|
B|------------------------------------|
G|-------------1-2--1---1-------------|
D|-2----2-4--4--------4---------------|
A|----2-------------------------------|
E|------------------------------------|

Parte 3 de 4
   C#m    G#m   A9     E
E|------------------------------------|
B|-5--4-2-2/4-------------------------|
G|---------------6--4-2-2/4-----------|
D|------------6-----------------------|
A|------------------------------------|
E|------------------------------------|

Parte 4 de 4
   C#m  G#m  A9      B4          E  C
E|------------------------------------|
B|-5----4----2---4-4/5-5-5\4-4/5-5--1-|
G|------------------------------------|
D|------------------------------------|
A|------------------------------------|
E|------------------------------------|

[Refrão]

  F       Gm        Bb9         F
Chuva de sangue eu sinto aqui cair
 F         Gm      Bb9        F  C/E
Lava minha alma e cura o meu ser

 Dm        Am          Bb9       F  C/E
Sangue de Deus que me fez filho seu
 Dm    Am        Bb9       C        F
Meu "DNA" tem o código do filho de Deus

  F       Gm        Bb9         F
Chuva de sangue eu sinto aqui cair
 F         Gm      Bb9        F  C/E
Lava minha alma e cura o meu ser

 Dm        Am          Bb9       F  C/E
Sangue de Deus que me fez filho seu
 Dm    Am        Bb9       C9       Bb9  Dm
Meu "DNA" tem o código do filho de De_______us

[Final]

Gm  C9              F
Oh, oh, oh, oh, oh, oh
00:00 / 00:00
Outros vídeos desta música
Repetir
Outros vídeos desta música
227.244 exibições
  • Simplificar cifra
    • ½ Tom
    • A
    • Bb
    • B
    • C
    • Db
    • D
    • Eb
    • E
    • F
    • F#
    • G
    • Ab
  • Adicionar à lista

Afinação da cifra

Afinador online

    0 comentários

    Ver todos os comentários

    Entre para o Cifra Club PRO

    Tenha acesso a benefícios exclusivos no App e no Site

    • Chega de anúncios

    • Mais recursos no app do Afinador

    • Atendimento Prioritário

    • Aumente seu limite de lista

    • Ajude a produzir mais conteúdo

    00:00 / 00:00

    Cifra Club Pro

    Aproveite o Cifra Club com benefícios exclusivos e sem anúncios
    Cifra Club Pro
    Aproveite o Cifra Club com benefícios exclusivos e sem anúncios
    OK