Cifra Club

Aprenda

Blind Confusion

Scott Weiland

Cifra: Principal (violão e guitarra)
tom: A
Intro:
E|----------------------------------------------------------------|
B|-13-13-------15-15-------13-13--------15-15-------13-13---------|
G|-------12-12-------12-12-------12--12-------12-12-------12-12---|
D|----------------------------------------------------------------|
A|----------------------------------------------------------------|
E|----------------------------------------------------------------|

E|----------------------------------------------------------------|
B|----------------------------------------------------------------|
G|--------------------------------------------------3/5-----------|
D|--------------------------------------------------3/5-----------|
A|--------------------------------------------------1/3-----------|
E|----------------------------------------------------------------|

E|-------------13-13-12-12-10-10----------------------------------|
B|-15-15--------------------------13-13-------13-13-------15-15---|
G|-------12-12--------------------------12-12-------12-12---------|
D|----------------------------------------------------------------|
A|----------------------------------------------------------------|
E|----------------------------------------------------------------|

E|----------------------------------------------------------------------|
B|-------13-13-------15-15-------13-13-13-13----------------------------|
G|-12-12-------12-12-------12-12-------------12-12-12-12----------------|
D|-------------------------------------------------------14-14-14-14-15-|
A|----------------------------------------------------------------------|
E|----------------------------------------------------------------------|

E|-----------------------------------------------|
B|-----------------------------------------------|
G|-----------------------------------------------|
D|-7/8---7/8---7/8---7/8\7/8--10~~---------------|
A|-7/8---7/8---7/8---7/8\7/6--10~~---------------|
E|-5/6---5/6---5/6---5/6\5/6--8~~~---------------|

E|------------------------------------------------|
B|------------------------------------------------|
G|-----------------------------------5-7-5---5----|
D|-----------------------------------------7---7~-|
A|-------------------------------5/7--------------|
E|------------------------------------------------|

Verso:
    (Now summers come and gone. The nights they seem so long.)
    A                        A                            A
E|------------------------------------------------------------|
B|-2------------------------2----------------------------2----|
G|-2------------------------2----------------------------2----|
D|-2------------------------2----------------------------2----|
A|-0------------------------0----------------------------0----|
E|------------------------------------------------------------|

(Erase the time of our erosion.  Now these days nothings built to last)
                    F            A                                A
E|-----------------1------------------------------------------------|
B|-----------------1------------2--------------------------------2--|
G|-----------------2------------2--------------------------------2--|
D|-----------------3------------2--------------------------------2--|
A|-----------------3------------0--------------------------------0--|
E|-----------------1------------------------------------------------|

E|------------------------------------------------------------------|
B|-----------------------0h2--4-4-4---13----15----13----15----13----|
G|---------------------------------------12----12----12----12----12-|
D|------------------------------------------------------------------|
A|------------------------------------------------------------------|
E|------------------------------------------------------------------|

(We're treading water fast! I'd rather float on mild explosions)
                     A                                    F
E|-------------------------------------------------------1------|
B|------------------2------------------------------------1------|
G|------------------2------------------------------------2------|
D|------------------2------------------------------------3------|
A|------------------0------------------------------------3------|
E|-------------------------------------------------------1------|

E|--------------------------------------------------------------|
B|-15----13----15----13----15----13----15-----13----------------|
G|----12----12----12----12----12----12----12------12------------|
D|----------------------------------------------------14--15----|
A|--------------------------------------------------------------|
E|--------------------------------------------------------------|

Pre-Refrão:
(And the rain, rain, rain I'll remember. Yeah we talk about rain...)
E|----------------------------------------------------------------|
B|-13-13-------15-15-------13-13--------15-15-------13-13---------|
G|-------12-12-------12-12-------12--12-------12-12-------12-12---|
D|----------------------------------------------------------------|
A|----------------------------------------------------------------|
E|----------------------------------------------------------------|

(...rain, rain; the still December. Starts to wash away, pain...)
E|-------------13-13-12-12-10-10----------------------------------|
B|-15-15--------------------------13-13-------13-13-------15-15---|
G|-------12-12--------------------------12-12-------12-12---------|
D|----------------------------------------------------------------|
A|----------------------------------------------------------------|
E|----------------------------------------------------------------|

(...pain with all you rendered cold. Erase the summer of our corrosion)
E|----------------------------------------------------------------------|
B|-------13-13-------15-15-------13-13-13-13----------------------------|
G|-12-12-------12-12-------12-12-------------12-12-12-12----------------|
D|-------------------------------------------------------14-14-14-14-15-|
A|----------------------------------------------------------------------|
E|----------------------------------------------------------------------|

Refrão:
(We told her that you loved her... Blind Confusion)
             (3x)
E|---------------------------|--------------------|
B|---------------------------|--------------------|
G|---------------------------|--------------------|
D|-7/8---7/8---7/8---7/8\7/8-|-10~~---------------|
A|-7/8---7/8---7/8---7/8\7/6-|-10~~---------------|
E|-5/6---5/6---5/6---5/6\5/6-|-8~~~---------------|

(We told her that you loved her... Mild explosion)
             (3x)
E|---------------------------|--------------------|
B|---------------------------|--------------------|
G|---------------------------|--------------------|
D|-7/8---7/8---7/8---7/8\7/8-|-10~~---------------|
A|-7/8---7/8---7/8---7/8\7/6-|-10~~---------------|
E|-5/6---5/6---5/6---5/6\5/6-|-8~~~---------------|

Verso:
    (You blasted through the walls. The shattered mirror saw.)
   A                           A                             A
E|-------------------------------------------------------------|
B|-2---------------------------2-----------------------------2-|
G|-2---------------------------2-----------------------------2-|
D|-2---------------------------2-----------------------------2-|
A|-0---------------------------0-----------------------------0-|
E|-------------------------------------------------------------|

(The tick and tock of your explosion. I see the red light coming fast)
                       F              A                           A
E|---------------------1--------------------------------------------|
B|---------------------1--------------2---------------------------2-|
G|---------------------2--------------2---------------------------2-|
D|---------------------3--------------2---------------------------2-|
A|---------------------3--------------0---------------------------0-|
E|---------------------1--------------------------------------------|

E|------------------------------------------------------------------|
B|------------------------------------------13----15----13----15----|
G|-------------------------5-7-5---5-----12----12----12----12----12-|
D|-------------------------------7----------------------------------|
A|---------------------5/7------------------------------------------|
E|------------------------------------------------------------------|

(I know that sound too well. I hope it ends your vile illusions)
                    A                              F
E|-------------------------------------------------1------------|
B|------------------2------------------------------1------------|
G|------------------2------------------------------2------------|
D|------------------2------------------------------3------------|
A|------------------0------------------------------3------------|
E|-------------------------------------------------1------------|

E|--------------------------------------------------------------|
B|-15----13----15----13----15----13----15-----13----------------|
G|----12----12----12----12----12----12----12------12------------|
D|----------------------------------------------------14--15----|
A|--------------------------------------------------------------|
E|--------------------------------------------------------------|

Pre-Refrão:
(And the rain, rain, rain I'll remember. Yeah we talk about rain...)
E|----------------------------------------------------------------|
B|-13-13-------15-15-------13-13--------15-15-------13-13---------|
G|-------12-12-------12-12-------12--12-------12-12-------12-12---|
D|----------------------------------------------------------------|
A|----------------------------------------------------------------|
E|----------------------------------------------------------------|

(...rain, rain; the still December. Starts to wash away, pain...)
E|-------------13-13-12-12-10-10----------------------------------|
B|-15-15--------------------------13-13-------13-13-------15-15---|
G|-------12-12--------------------------12-12-------12-12---------|
D|----------------------------------------------------------------|
A|----------------------------------------------------------------|
E|----------------------------------------------------------------|

(...pain with all you rendered cold. Erase the summer of our corrosion)
E|----------------------------------------------------------------------|
B|-------13-13-------15-15-------13-13-13-13----------------------------|
G|-12-12-------12-12-------12-12-------------12-12-12-12----------------|
D|-------------------------------------------------------14-14-14-14-15-|
A|----------------------------------------------------------------------|
E|----------------------------------------------------------------------|

Ponte:
E|-----------------------------|
B|-----------------------------|
G|-----------------------------|
D|-----------------------------|
A|-0-0-0-0-0-0-0-3-0-0-3-0-0-0-|
E|-----------------------------|
   . . . . . . .   . .   . . .

Refrão:
(We told her that you loved her... Blind Confusion)
             (3x)
E|---------------------------|--------------------|
B|---------------------------|--------------------|
G|---------------------------|--------------------|
D|-7/8---7/8---7/8---7/8\7/8-|-10~~---------------|
A|-7/8---7/8---7/8---7/8\7/6-|-10~~---------------|
E|-5/6---5/6---5/6---5/6\5/6-|-8~~~---------------|

(We told her that you loved her... Mild explosion)
             (3x)
E|---------------------------|--------------------|
B|---------------------------|--------------------|
G|---------------------------|--------------------|
D|-7/8---7/8---7/8---7/8\7/8-|-10~~---------------|
A|-7/8---7/8---7/8---7/8\7/6-|-10~~---------------|
E|-5/6---5/6---5/6---5/6\5/6-|-8~~~---------------|

Final:
E|-------------------------------------------------------|
B|-------------------------------------------------------|
G|-0-0-0-0-0-0-0-0-0-0-0-0-0-0-0-0-0-0-0-0-0-0-0-0-0-0-0-|
D|-------------------------------------------------------|
A|-------------------------------------------------------|
E|-------------------------------------------------------|

(The nights have been too long. Your wines a bit too strong.)
E|-----------------------------------------------------------|
B|-----------------------------------------------------------|
G|-0-0-2-2-3-3-0-0-0-0-0-0-0-0-0-0-0-0-0-0-0-0-0-2-2-3-3-0-0-|
D|-----------------------------------------------------------|
A|-----------------------------------------------------------|
E|-----------------------------------------------------------|

(To while away your mass confusion. Her eyes are way too strong)
E|--------------------------------------------------------------|
B|-------------1-1-1-1-1-1-1-1-1-1-1----------------------------|
G|-0-0-2-2-3-3------------------------0-0-0-0-0-0-0-2-2-3-3-0-0-|
D|--------------------------------------------------------------|
A|--------------------------------------------------------------|
E|--------------------------------------------------------------|

(The shades are dark enough. Wide awake today confusion.)
E|-------------------------------------------------------------|
B|-----------------------------------------1-1-1-1-1-1-1-1-1-1-|
G|-0-0-0-0-0-0-0-2-2-3-3-0-0-0-0-0-2-2-3-3---------------------|
D|-------------------------------------------------------------|
A|-------------------------------------------------------------|
E|-------------------------------------------------------------|
Compositor não encontrado.
Colaboração e revisão:
  • Mansinho Jr.
89 exibições
    • ½ Tom
    • A
    • Bb
    • B
    • C
    • Db
    • D
    • Eb
    • E
    • F
    • F#
    • G
    • Ab
  • Adicionar à lista

    0 comentários

    Ver todos os comentários

    Conseguiu tocar?

    0 Tocaram 0 Ainda não

    Grave um vídeo tocando Blind Confusion e nos envie!

    00:00 / 00:00
    Outros vídeos desta música
    Repetir Qualidade Automático
    Outros vídeos desta música
    00:00 / 00:00
    Automático

    Cifra Club Pro

    Aproveite o Cifra Club com benefícios exclusivos e sem anúncios
    Cifra Club Pro
    Aproveite o Cifra Club com benefícios exclusivos e sem anúncios
    OK