Cifra Club

Black Friday

White Zombie

Cifra: Principal (violão e guitarra)
Selo Cifra Club: esta cifra foi revisada para atender aos critérios oficiais da nossa Equipe de Qualidade.
tom: Eb
intro
E|----------------------------------------------------------------------------------------|
B|----------------------------------------------------------------------------------------|
G|----------------------------------------------------------------------------------------|
D|-6-x-x-x-x-x-x-4-4-5-5-5-5-5-6-x-x-x-x-x-x-4-4-5-5-5-5-5-6-x-x-x-x-x-x-4-4-5-5-5-5-5-6--|
A|-6-x-x-x-x-x-x-4-4-5-5-5-5-5-6-x-x-x-x-x-x-4-4-5-5-5-5-5-6-x-x-x-x-x-x-4-4-5-5-5-5-5-6--|
E|-4-x-x-x-x-x-x-2-2-3-3-3-3-3-4-x-x-x-x-x-x-2-2-3-3-3-3-3-4-x-x-x-x-x-x-2-2-3-3-3-3-3-4--|

E|-------------------------------------------------------------------------16-16-16-16-16-16-|
B|-------------------------------------------------------------------------16-16-16-16-16-16-|
G|-----------------------------8^b-----------------------------------------------------------|
D|-x-x-x-x-x-x-4-4-5-5-5-5-5-6-----4-4-5-5-5-5-5-6---------4-4-5-5-5-5-5-6-------------------|
A|-x-x-x-x-x-x-4-4-5-5-5-5-5-6-----4-4-5-5-5-5-5-6---------4-4-5-5-5-5-5-6-------------------|
E|-x-x-x-x-x-x-2-2-3-3-3-3-3-4-----2-2-3-3-3-3-3-4-4^b~~~~~2-2-3-3-3-3-3-4-------------------|

E|-------------------------------------|
B|-------------------------------------|
G|-------------------------------------|
D|-4-4-5-5-5-5-5-6-x-x-6-x-x-x-x--6-x--|
A|-4-4-5-5-5-5-5-6-x-x-6-x-x-x-x--6-x--|
E|-2-2-3-3-3-3-3-4-x-x-4-x-x-x-x--4-x--|

verse
E|-----| |--------------------------------------------------------||
B|-----| |*------------------------------------------------------*||
G|-----| |--------------------------4-4-4-4-4-4-4-4---------------||
D|-6-5-| |--4-4-4-4-4-4-4-4-5-5-x-5-4-4-4-4-4-4-4-4-8-8-x-7-x-6---||
A|-6-5-| |*-4-4-4-4-4-4-4-4-5-5-x-5-2-2-2-2-2-2-2-2-8-8-x-7-x-6--*||
E|-4-3-| |--2-2-2-2-2-2-2-2-3-3-x-3-----------------6-6-x-5-x-4---||

chorus
Eb||---------------------------------------------------------------||
Bb||*-------------------------------------------------------------*||
Gb||---------------------------------------------------------------||
Db||--4-4-4-4-4-4-4-4-x-4-4-4-4-4-4-4-4-x-4-4-4-4-4-4-4-4-x--------||
Ab||*-4-4-4-4-4-4-4-4-x-4-4-4-4-4-4-4-4-x-4-4-4-4-4-4-4-4-x---3---*||
Eb||--2-2-2-2-2-2-2-2-x-2-2-2-2-2-2-2-2-x-2-2-2-2-2-2-2-2-x-2---5--||

E|------------------------------------------------------------------------------------------|
B|------------------------------------------------------------------------------------------|
G|------------------------------------------------------------------------------------------|
D|--6-x-x-x-x-x-x-4-4-5-5-5-5-5-6--x-x-x-x-x-x-4-4-5-5-5-5-5-6--x-x-x-x-x-x-4-4-5-5-5-5-5-6-|
A|--6-x-x-x-x-x-x-4-4-5-5-5-5-5-6--x-x-x-x-x-x-4-4-5-5-5-5-5-6--x-x-x-x-x-x-4-4-5-5-5-5-5-6-|
E|--4-x-x-x-x-x-x-2-2-3-3-3-3-3-4--x-x-x-x-x-x-2-2-3-3-3-3-3-4--x-x-x-x-x-x-2-2-3-3-3-3-3-4-|

                            verse
E|-----------------------| |-------------------------------------------------------||
B|-----------------------| |*-----------------------------------------------------*||
G|-----------------------| |--------------------------4-4-4-4-4-4-4-4--------------||
D|-x-x-6-x-x-x-x-6-x-6-5-| |--4-4-4-4-4-4-4-4-5-5-x-5-4-4-4-4-4-4-4-4-8-8-x-7-x-6--||
Ab|-x-x-6-x-x-x-x-6-x-6-5-||*-4-4-4-4-4-4-4-4-5-5-x-5-2-2-2-2-2-2-2-2-8-8-x-7-x-6-*||
Eb|-x-x-4-x-x-x-x-4-x-4-3-| |--2-2-2-2-2-2-2-2-3-3-x-3-----------------6-6-x-5-x-4--||

chorus
Eb||---------------------------------------------------------------||
Bb||*-------------------------------------------------------------*||
Gb||---------------------------------------------------------------||
Db||--4-4-4-4-4-4-4-4-x-4-4-4-4-4-4-4-4-x-4-4-4-4-4-4-4-4-x--------||
Ab||*-4-4-4-4-4-4-4-4-x-4-4-4-4-4-4-4-4-x-4-4-4-4-4-4-4-4-x---3---*||
Eb||--2-2-2-2-2-2-2-2-x-2-2-2-2-2-2-2-2-x-2-2-2-2-2-2-2-2-x-2---5--||

E|------------------------------------------------------------------------------------------|
B|------------------------------------------------------------------------------------------|
G|------------------------------------------------------------------------------------------|
D|--6-x-x-x-x-x-x-4-4-5-5-5-5-5-6--x-x-x-x-x-x-4-4-5-5-5-5-5-6--x-x-x-x-x-x-4-4-5-5-5-5-5-6-|
A|--6-x-x-x-x-x-x-4-4-5-5-5-5-5-6--x-x-x-x-x-x-4-4-5-5-5-5-5-6--x-x-x-x-x-x-4-4-5-5-5-5-5-6-|
E|--4-x-x-x-x-x-x-2-2-3-3-3-3-3-4--x-x-x-x-x-x-2-2-3-3-3-3-3-4--x-x-x-x-x-x-2-2-3-3-3-3-3-4-|

                            verse
E|-----------------------| |-------------------------------------------------------||
B|-----------------------| |*-----------------------------------------------------*||
G|-----------------------| |--------------------------4-4-4-4-4-4-4-4--------------||
D|-x-x-6-x-x-x-x-6-x-6-5-| |--4-4-4-4-4-4-4-4-5-5-x-5-4-4-4-4-4-4-4-4-8-8-x-7-x-6--||
Ab|-x-x-6-x-x-x-x-6-x-6-5-||*-4-4-4-4-4-4-4-4-5-5-x-5-2-2-2-2-2-2-2-2-8-8-x-7-x-6-*||
Eb|-x-x-4-x-x-x-x-4-x-4-3-| |--2-2-2-2-2-2-2-2-3-3-x-3-----------------6-6-x-5-x-4--||

chorus
Eb||---------------------------------------------------------------||
Bb||*-------------------------------------------------------------*||
Gb||---------------------------------------------------------------||
Db||--4-4-4-4-4-4-4-4-x-4-4-4-4-4-4-4-4-x-4-4-4-4-4-4-4-4-x--------||
Ab||*-4-4-4-4-4-4-4-4-x-4-4-4-4-4-4-4-4-x-4-4-4-4-4-4-4-4-x---3---*||
Eb||--2-2-2-2-2-2-2-2-x-2-2-2-2-2-2-2-2-x-2-2-2-2-2-2-2-2-x-2---5--||

E|------------------------------------------------------------------------------------------|
B|------------------------------------------------------------------------------------------|
G|------------------------------------------------------------------------------------------|
D|--6-x-x-x-x-x-x-4-4-5-5-5-5-5-6--x-x-x-x-x-x-4-4-5-5-5-5-5-6--x-x-x-x-x-x-4-4-5-5-5-5-5-6-|
A|--6-x-x-x-x-x-x-4-4-5-5-5-5-5-6--x-x-x-x-x-x-4-4-5-5-5-5-5-6--x-x-x-x-x-x-4-4-5-5-5-5-5-6-|
E|--4-x-x-x-x-x-x-2-2-3-3-3-3-3-4--x-x-x-x-x-x-2-2-3-3-3-3-3-4--x-x-x-x-x-x-2-2-3-3-3-3-3-4-|

E|-----------------------------------------------------------------|
B|---------------------7-------------------------------------------|
G|---------------------5-------------------------------------------|
D|--x-x-6-x-x-x-x-6-x--6-------------------------------------------|
A|--x-x-6-x-x-x-x-6-x--6-------------------------------------------|
Eb|--x-x-4-x-x-x-x-4-x----------------------------------------------|
Outros vídeos desta música
    2 exibições
      • ½ Tom
      • A
      • Bb
      • B
      • C
      • Db
      • D
      • Eb
      • E
      • F
      • F#
      • G
      • Ab
    • Adicionar à lista

    Afinação da cifra

    Afinador online

      0 comentários

      Ver todos os comentários

      Entre para o Cifra Club PRO

      Tenha acesso a benefícios exclusivos no App e no Site

      • Chega de anúncios

      • Badges exclusivas

      • Mais recursos no app do Afinador

      • Atendimento Prioritário

      • Aumente seu limite de lista

      • Ajude a produzir mais conteúdo

      Cifra Club Pro

      Aproveite o Cifra Club com benefícios exclusivos e sem anúncios
      Cifra Club Pro
      Aproveite o Cifra Club com benefícios exclusivos e sem anúncios
      OK