Cifra Club

Aprenda

Why

Wide Mouth Mason

Cifra: Principal (violão e guitarra)
tom: F#
   Tabbed by: Chris * 
   Comment: This is one funky song to play 

   ----------------------9--7---------------------------------------------------- 
   -11---x-x--11---x-x---9----9-8-7-----8---------------------------------------- 
   -10---x-x--10---x-x---9----------9-6------------------------------------------ 
   -11---x-x--11---x-x---x------------------------------------------------------- 
   ------------------------------------------------------------------------------ 
   ------------------------------------------------------------------------------ 
   Intro 

   ------------------------------------------------------------------------------ 
   -3--2----------------------3-2------------------------3-2--------------------- 
   -5--4----------------------5-4------------------------5-4--------------------- 
   -x--x----------------------x-x--------------0-2b------x-x--------------------- 
   -5--4-----0-2h3h4-0-2h3h4--5-4------0-2h3h4------4p0--5-4-----0-2h3h4-0-2h3h4- 
   ------0-4-----------------------0-4-----------------------0-4----------------- 
   Main Riff 

   ------------------------------------------------------------------------------ 
   -3-2-------------------------------------------------------------------------- 
   -5-4-------------------------------------------------------------------------- 
   -x-x-------------------------------------------------------------------------- 
   -5-4-----0-2h3h4-------------------------------------------------------------- 
   -----0-4---------0------------------------------------------------------------ 

   -6-x---6-6-------------------------------------------------------------------- 
   -5-x---5-5-------------------------------------------------------------------- 
   -6-x---6-6-------------------------------------------------------------------- 
   -4---------------------------------------------------------------------------- 
   -4---------------------------------------------------------------------------- 
   ------------------------------------------------------------------------------ 
   Verses-You can do a lot with this part play it really funky it sounds great 

   -0--0--00--0--0---0-0--------------------------------------------------------- 
   -2--2--22--0--0---2-2--6------------------------------------------------------ 
   -3--3--33--1--1---3-3--6-6---------------------------------------------------- 
   -4--4--44--2--2---4-4--6-6---------------------------------------------------- 
   -4--4--44--2--2---4-4--4-4---------------------------------------------------- 
   -----------0--0--------------------------------------------------------------- 
   Chorus 

   ------------------------------------------------------------------------------ 
   -9/11-11-9-9-9--7-7-7---5-5-5--4-4-4--2--0-0-0-------------------------------- 
   ------------------------------------------------------------------------------ 
   ------------------------------------------------------------------------------ 
   ------------------------------------------------------------------------------ 
   ------------------------------------------------------------------------------ 
   Bridge Part I'll tab it out better but for now this is it 

   ------------------------------------------------------------------------------ 
   -11xx-11xx-------------------------------------------------------------------- 
   -10xx-10xx-------------------------------------------------------------------- 
   -11xx-11xx-------------------------------------------------------------------- 
   ------------------------------------------------------------------------------ 
   ------------------------------------------------------------------------------ 
   Back To This Part 
171 exibições
    • ½ Tom
    • A
    • Bb
    • B
    • C
    • Db
    • D
    • Eb
    • E
    • F
    • F#
    • G
    • Ab
  • Adicionar à lista

    0 comentários

    Ver todos os comentários

    Conseguiu tocar?

    0 Tocaram 0 Ainda não

    Grave um vídeo tocando Why e nos envie!

    00:00 / 00:00
    outros vídeos desta música
    repetir qualidade Automático
    Outros vídeos desta música
    00:00 / 00:00
    Automático

    Cifra Club Pro

    Aproveite o Cifra Club com benefícios exclusivos e sem anúncios
    Cifra Club Pro
    Aproveite o Cifra Club com benefícios exclusivos e sem anúncios
    OK