Cifra Club

My Angel Lonely

Wild Nothing

Cifra: Principal (violão e guitarra)
Selo Cifra Club: esta cifra foi revisada para atender aos critérios oficiais da nossa Equipe de Qualidade.
tom: D
VERSE: [x2]
E|------------------------------------|---------------------------|
B|------------------------------------|---------------------------|
G|------------------------------------|---------------------------|
D|-12--12-12-11--11-11-9-9-9-7--7-7-7-|-----------------7---------|
A|------------------------------------|-9--9-7-9--9-7-9----9--9-9-|
E|------------------------------------|---------------------------|

E|---------------|----------------------|----------------|
B|---------------|----------------------|----------------|
G|---------------|----------------------|----------------|
D|---------------|-------4--------------|-----4----------|
A|----9-9---9----|---5-7---7-0-0-2--0-2-|-5-7---7-5--5-5-|
E|-7------7----7-|-7--------------------|----------------|

CHORUS:                                            [x3]
E|-------------------------------|----------------------------------------|
B|-----10-10-10--10-10-10--------|-12-12-12--10-10-10---------------------|
G|-11----------------------11-11-|--------------------11-11-11\9--9-9\7-7-|
D|-------------------------------|----------------------------------------|
A|-------------------------------|----------------------------------------|
E|-------------------------------|----------------------------------------|
                                      [x3]
E|-------------------------|--------------------------|
B|-------------------------|--------------------------|
G|----7-7---7--------------|----7-7---7---------------|
D|-9------9----------7-----|-9------9-----------7-----|
A|-------------9-9-7---7-5-|------------9-9-9-7---7-5-|
E|-------------------------|--------------------------|

BRIDGE:
E|-------------------10-9-----------|
B|-/12-12--10--------------10-------|
G|------------11---------------9--7-|
D|---------------12-----------------|
A|----------------------------------|
E|----------------------------------| [x4]

Repeat VERSE
Repeat CHORUS

OUTRO:
E|----------------------------------------|
B|-12-12-12--10-10-10---------------------|
G|--------------------11-11-11\9--9-9\7-7-|
D|----------------------------------------|
A|----------------------------------------|
E|----------------------------------------| [x4]
Outros vídeos desta música
    12 exibições
      • ½ Tom
      • A
      • Bb
      • B
      • C
      • Db
      • D
      • Eb
      • E
      • F
      • F#
      • G
      • Ab
    • Adicionar à lista

    Afinação da cifra

    Afinador online

      0 comentários

      Ver todos os comentários

      Entre para o Cifra Club PRO

      Tenha acesso a benefícios exclusivos no App e no Site

      • Chega de anúncios

      • Badges exclusivas

      • Mais recursos no app do Afinador

      • Atendimento Prioritário

      • Aumente seu limite de lista

      • Ajude a produzir mais conteúdo

      Cifra Club Pro

      Aproveite o Cifra Club com benefícios exclusivos e sem anúncios
      Cifra Club Pro
      Aproveite o Cifra Club com benefícios exclusivos e sem anúncios
      Ops (: Contenido disponible sólo en portugués.
      OK