Cifra Club

Moaning Lisa Smile

Wolf Alice

Cifra: Principal (violão e guitarra)
Selo Cifra Club: esta cifra foi revisada para atender aos critérios oficiais da nossa Equipe de Qualidade.
tom: B
E|E|-----------------------------------------------------------------------------------------||
                             MOANING LISA SE LE - Wolf Alice
E|E|-----------------------------------------------------------------------------------------||
Tabbed by: mizzo123

Tuning: Standard


This is a really simple song to play, but the other versions are not quite correct.
Plus, this one has the solo tabbed out!

Lyrics are at the bottom of the tab.

[CHORDS USED]

  B5/F#   E5/B    D5/A
E|---------------------|
B|---------------------|
G|--4-------9-------7--|
D|--4-------9-------7--|
A|--2-------7-------5--|
E|--2-------7-------5--|


[INTRO] (Play quietly twice then loudly twice)

    B5/F#    E5/B  D5/A              E5/B  B5/F#
E|--------------------------------------------------| {~~~~~~~~~~~~~~~~~~~~~~~}
B|--------------------------------------------------| {                       }
G|--4--4--4--9--9--7--7--7--7--7--7--9--9--4--4--4--| { These chords are just }
D|--4--4--4--9--9--7--7--7--7--7--7--9--9--4--4--4--| (x4)     {  repeated throughout  }
A|--2--2--2--7--7--5--5--5--5--5--5--7--7--2--2--2--| {                       }
E|--2--2--2--7--7--5--5--5--5--5--5--7--7--2--2--2--| {~~~~~~~~~~~~~~~~~~~~~~~}


[VERSE] (Play quietly)

    B5/F#    E5/B  D5/A              E5/B  B5/F#
E|--------------------------------------------------|
B|--------------------------------------------------|
G|--4--4--4--9--9--7--7--7--7--7--7--9--9--4--4--4--|
D|--4--4--4--9--9--7--7--7--7--7--7--9--9--4--4--4--| (x4)
A|--2--2--2--7--7--5--5--5--5--5--5--7--7--2--2--2--|
E|--2--2--2--7--7--5--5--5--5--5--5--7--7--2--2--2--|


[CHORUS] (Play loudly)

    B5/F#    E5/B  D5/A              E5/B  B5/F#
E|--------------------------------------------------|
B|--------------------------------------------------|
G|--4--4--4--9--9--7--7--7--7--7--7--9--9--4--4--4--|
D|--4--4--4--9--9--7--7--7--7--7--7--9--9--4--4--4--| (x4)
A|--2--2--2--7--7--5--5--5--5--5--5--7--7--2--2--2--|
E|--2--2--2--7--7--5--5--5--5--5--5--7--7--2--2--2--|


[VERSE] (Play quietly)

    B5/F#    E5/B  D5/A              E5/B  B5/F#
E|--------------------------------------------------|
B|--------------------------------------------------|
G|--4--4--4--9--9--7--7--7--7--7--7--9--9--4--4--4--|
D|--4--4--4--9--9--7--7--7--7--7--7--9--9--4--4--4--| (x4)
A|--2--2--2--7--7--5--5--5--5--5--5--7--7--2--2--2--|
E|--2--2--2--7--7--5--5--5--5--5--5--7--7--2--2--2--|


[CHORUS] (Play loudly)

    B5/F#    E5/B  D5/A              E5/B  B5/F#
E|--------------------------------------------------|
B|--------------------------------------------------|
G|--4--4--4--9--9--7--7--7--7--7--7--9--9--4--4--4--|
D|--4--4--4--9--9--7--7--7--7--7--7--9--9--4--4--4--| (x4)
A|--2--2--2--7--7--5--5--5--5--5--5--7--7--2--2--2--|
E|--2--2--2--7--7--5--5--5--5--5--5--7--7--2--2--2--|


[G  O]
E|---------------------------------------------------------------------------------------------------------|
                                               |
                                               |  These chords are played during the solo:
                                               |
                                               |
                                               |       B5/F#    E5/B  D5/A              E5/B  B5/F#
E|-----------------------------------------| |   e|--------------------------------------------------|
B|--7---7p5---------5----------------------| |   B|--------------------------------------------------|
G|-----------7--4-------4-4-4-4b5---4------| |   G|--4--4--4--9--9--7--7--7--7--7--7--9--9--4--4--4--|
D|-----------------------------------------| |   D|--4--4--4--9--9--7--7--7--7--7--7--9--9--4--4--4--|
A|-----------------------------------------| |   A|--2--2--2--7--7--5--5--5--5--5--5--7--7--2--2--2--|
E|-----------------------------------------| |   E|--2--2--2--7--7--5--5--5--5--5--5--7--7--2--2--2--|
                                               |
                                               |       B5/F#    E5/B  D5/A              E5/B  B5/F#
E|-----------------------------------------| |   e|--------------------------------------------------|
B|--7---7p5---------5---5-5-5-5----4-------| |   B|--------------------------------------------------|
G|-----------7--4--------------------------| |   G|--4--4--4--9--9--7--7--7--7--7--7--9--9--4--4--4--|
D|-----------------------------------------| |   D|--4--4--4--9--9--7--7--7--7--7--7--9--9--4--4--4--|
A|-----------------------------------------| |   A|--2--2--2--7--7--5--5--5--5--5--5--7--7--2--2--2--|
E|-----------------------------------------| |   E|--2--2--2--7--7--5--5--5--5--5--5--7--7--2--2--2--|
                                               |
                                               |       B5/F#    E5/B  D5/A              E5/B  B5/F#
E|-----------------------------------------| |   e|--------------------------------------------------|
B|--7---7p5---------5----------------------| |   B|--------------------------------------------------|
G|-----------7--4-------4-4-4b5-4---4------| |   G|--4--4--4--9--9--7--7--7--7--7--7--9--9--4--4--4--|
D|-----------------------------------------| |   D|--4--4--4--9--9--7--7--7--7--7--7--9--9--4--4--4--|
A|-----------------------------------------| |   A|--2--2--2--7--7--5--5--5--5--5--5--7--7--2--2--2--|
E|-----------------------------------------| |   E|--2--2--2--7--7--5--5--5--5--5--5--7--7--2--2--2--|
                                               |
                                               |       B5/F#    E5/B  D5/A              E5/B  B5/F#
E|-----------------------------------------| |   e|--------------------------------------------------|
B|--7---7p5---------5---5-5-5-5----4-------| |   B|--------------------------------------------------|
G|-----------7--4-----------------------4--| |   G|--4--4--4--9--9--7--7--7--7--7--7--9--9--4--4--4--|
D|-----------------------------------------| |   D|--4--4--4--9--9--7--7--7--7--7--7--9--9--4--4--4--|
A|-----------------------------------------| |   A|--2--2--2--7--7--5--5--5--5--5--5--7--7--2--2--2--|
E|-----------------------------------------| |   E|--2--2--2--7--7--5--5--5--5--5--5--7--7--2--2--2--|
                                               |
E|-----------------------------------------------|---------------------------------------------------------|


[OUTRO]

    B5/F#    E5/B  D5/A              E5/B  B5/F#
E|--------------------------------------------------|
B|--------------------------------------------------|
G|--4--4--4--9--9--7--7--7--7--7--7--9--9--4--4--4--|
D|--4--4--4--9--9--7--7--7--7--7--7--9--9--4--4--4--| (x8)
A|--2--2--2--7--7--5--5--5--5--5--5--7--7--2--2--2--|
E|--2--2--2--7--7--5--5--5--5--5--5--7--7--2--2--2--|


[Lyrics]

Clinging to love, escape a father and mother
She helps us some other way out of the hole
She's overachieving, chasing her dreams and
Coming to slowly yeah it's out of control

Ahhhhhhh
Grab the blues, if the blues don't work
Flash your teeth, though the inside hurts
Ahhhhhhh
Scrap the blues, if the blues don't work
To make you feel better just because it feels worse

All of the books and all in a boat and
Nowhere to run, God this is out of control
You wait for a something to undo these feelings
Waiting and waiting but it's out of control

Ahhhhhhh
Scrap the blues, if the blues don't work
Flash your teeth, though the inside hurts
Ahhhhhhh
Scrap the blues, if the blues don't work
To make you feel better just because it feels worse

Ahhhhhhh
Ahhhhhhh
They're never losing life
No, you're never losing life
It never loses life
No, it never loses life
Outros vídeos desta música
    50 exibições
      • ½ Tom
      • A
      • Bb
      • B
      • C
      • Db
      • D
      • Eb
      • E
      • F
      • F#
      • G
      • Ab
    • Adicionar à lista

    Afinação da cifra

    Afinador online

      0 comentários

      Ver todos os comentários

      Conseguiu tocar?

      0Tocaram0Ainda não

      Grave um vídeo tocando Moaning Lisa Smile e nos envie!

      Toque também

      1. Imagem do artista Lucy RoseShiver Lucy Rose
      2. Imagem do artista WallaJust Tired Walla
      3. Imagem do artista The Joy FormidableEndtapes The Joy Formidable
      4. Imagem do artista Swim Deepbeach justice Swim Deep

      Entre para o Cifra Club PRO

      Tenha acesso a benefícios exclusivos no App e no Site

      • Chega de anúncios

      • Badges exclusivas

      • Mais recursos no app do Afinador

      • Atendimento Prioritário

      • Aumente seu limite de lista

      • Ajude a produzir mais conteúdo

      Cifra Club Pro

      Aproveite o Cifra Club com benefícios exclusivos e sem anúncios
      Cifra Club Pro
      Aproveite o Cifra Club com benefícios exclusivos e sem anúncios
      Ops (: Contenido disponible sólo en portugués.
      OK