Cifra Club

Smile

Wolf Alice

Cifra: Principal (violão e guitarra)
Selo Cifra Club: esta cifra foi revisada para atender aos critérios oficiais da nossa Equipe de Qualidade.
tom: E
E|--------------------------------------------------|--------------------------------------------------|
B|--------------------------------------------------|--------------------------------------------------|
G|--------------------------------------------------|--------------------------------------------------|
D|--------------------------------------------------|--------------------------------------------------|
A|--------------------------------------------------|--------------------------------------------------|
E|--2--------0--2--4--0--2-----2-----0--2--4--0-----|--2--------0--2--4--0--2-----2-----0--2--4--0-----|


[Verse 2]

E|--2-----------2--------|--2-----------2--------|--2-----------2--------|--2-----------2--------|
B|-----1--2--------1--2--|-----1--2--------1--2--|-----1--2--------1--2--|-----1--2--------1--2--|
G|-----------------------|-----------------------|-----------------------|-----------------------|
D|-----------------------|-----------------------|-----------------------|-----------------------|
A|-----------------------|-----------------------|-----------------------|-----------------------|
E|-----------------------|-----------------------|-----------------------|-----------------------|

E|--2-----------2--------|--2-----------2--------|--2-----------2--------|-----------------------|
B|-----1--2--------1--2--|-----1--2--------1--2--|-----1--2--------1--2--|--0--------------------|
G|-----------------------|-----------------------|-----------------------|-----------------------|
D|-----------------------|-----------------------|-----------------------|-----------------------|
A|-----------------------|-----------------------|-----------------------|-----------------------|
E|-----------------------|-----------------------|-----------------------|-----------------------|


[Chorus]

E|--------------------------|--------------------------|--------------------------|--------------------------|
B|--------------------------|--------------------------|--------------------------|--------------------------|
G|--------------------------|--------------------------|--------------------------|--------------------------|
D|--------------------------|--------------------------|--------------------------|--------------------------|
A|--------------------------|--------------------------|--------------------------|--------------------------|
E|--5--5--5--5--5--5--5--5--|--7--7--7--7--7--7--7--7--|--2--2--2--2--2--2--2--2--|--4--4--4--4--4--4--4--4--|

E|--------------------------|--------------------------|--------------------------------------------------|
B|--------------------------|--------------------------|--------------------------------------------------|
G|--------------------------|--------------------------|--------------------------------------------------|
D|--------------------------|--------------------------|--------------------------------------------------|
A|--------------------------|--------------------------|--------------------------------------------------|
E|--5--5--5--5--5--5--5--5--|--7--7--7--7--7--7--7--7--|--2--------0--2--4--0--2-----2-----0--2--4--0-----|

E|--------------------------------------------------|
B|--------------------------------------------------|
G|--------------------------------------------------|
D|--------------------------------------------------| x3
A|--------------------------------------------------|
E|--2--------0--2--4--0--2-----2-----0--2--4--0-----|


[Bridge]

E|--------------------------------------------------|--------------------------------------------------|
B|--------------------------------------------------|--------------------------------------------------|
G|--------------------------------------------------|--------------------------------------------------|
D|--------------------------------------------------|--------------------------------------------------|
A|--------------------------------------------------|--------------------------------------------------|
E|--10-10-10-10-10-10-6--6--7--7--2--2--------------|--2--------0--2--4--0--2-----2-----0--2--4--0-----|


[Chorus 2]

  F#
E|--------------------------------------------------|--------------------------------------------------|
B|--------------------------------------------------|--------------------------------------------------|
G|--------------------------------------------------|--------------------------------------------------|
D|--------2--4-----------2--------2--4--------------|--------2--4-----------2--------2--4--------------|
A|--------------------------------------------------|--------------------------------------------------|
E|--2--4--------0--2--4-----2--4--------0--2--4-----|--2--4--------0--2--4-----2--4--------0--2--4-----|


[Verse 1]
N.C.
I ain't afraid though my steps appear tentative
N.C.
I scope it out then I throw myself into it
N.C.
I ain't ashamed in the fact that I'm sensitive
N.C.
I believe that it is the perfect adjective
N.C.
I wear my feelings on my sleeve, I suggested it
N.C.
It serves me better than to swallow in a sedative
N.C.
I am what I am and I'm good at it
N.C.
And you don't like me, well that isn't fucking relevant

A B F# B

[Verse 2]
N.C.
Don't call me mad, there's a difference; I'm angry
N.C.
And your choice to call mе cute has offended mе
N.C.
I have power, there are people who depend on me
N.C.
And even you have time you wish to spend on me
N.C.
And now you all think I'm unhinged
N.C.
But wind it up and this honeybee stings
N.C.
Did you think I was a puppet on strings?
N.C.
Wind her up and this honeybee sings


[Chorus]
A               B
Ah, ah, ah, ah, sun and the shine
F#              E
Ah, ah, ah, ah, smile
A               B
Ah, ah, ah, ah, sun and the shine


[Bridge]
N.C.
If you want me you can find me at the bar
N.C.
Lost souls congregate at the bar
N.C.
Take a minute and remember who you are
N.C.                                           D A# Bm F#
Sip your drink, sip one more and you're a star


[Chorus 2]
A               B
Ah, ah, ah, ah, sun and the shine
F#              E
Ah, ah, ah, ah, smile
A               B
Ah, ah, ah, ah, sun and the shine
F#              E
Ah, ah, ah, ah, smile
Outros vídeos desta música
    41 exibições
      • ½ Tom
      • A
      • Bb
      • B
      • C
      • Db
      • D
      • Eb
      • E
      • F
      • F#
      • G
      • Ab
    • Adicionar à lista

    Afinação da cifra

    Afinador online

      0 comentários

      Ver todos os comentários

      Conseguiu tocar?

      0Tocaram0Ainda não

      Grave um vídeo tocando Smile e nos envie!

      Toque também

      1. Imagem do artista Lucy RoseShiver Lucy Rose
      2. Imagem do artista WallaAngels And Demons Walla
      3. Imagem do artista The Joy FormidableEndtapes The Joy Formidable
      4. Imagem do artista Swim Deepbeach justice Swim Deep

      Entre para o Cifra Club PRO

      Tenha acesso a benefícios exclusivos no App e no Site

      • Chega de anúncios

      • Badges exclusivas

      • Mais recursos no app do Afinador

      • Atendimento Prioritário

      • Aumente seu limite de lista

      • Ajude a produzir mais conteúdo

      Cifra Club Pro

      Aproveite o Cifra Club com benefícios exclusivos e sem anúncios
      Cifra Club Pro
      Aproveite o Cifra Club com benefícios exclusivos e sem anúncios
      Ops (: Contenido disponible sólo en portugués.
      OK