Cifra Club

The Devil You Know

X Ambassadors

Cifra: Principal (violão e guitarra)
Selo Cifra Club: esta cifra foi revisada para atender aos critérios oficiais da nossa Equipe de Qualidade.
tom: G#m
[Verse Riff]
E|---------------------------|
B|---------------------------|
G|---------------------------|
D|-2----2--------2-----------|
A|-2----2--------2-----------|
E|-0----0-b3-----0-----------|

The devil you know
The devil you know
The devil you know

’Cause better than​ know
The devil you know
Never you don’t

Cause wherever you go
Ever you go with the devil you know
You never alone
But it’s better to know the devil you know
Devil you know Devil you know

Ya, ayyy
Ya, ayyy
Ya, ayyy
The devil you know
Ya, ayyy
Ya, ayyy
Ya, ayyy
The devil you know

E|-----------------------------|
B|-----------------------------|
G|-----------------------------|
D|-2---/9-/7----5-5---5/7------|
A|-2---------------------------|
E|-0---/7-/5----3-3---3/5------|

E|-----------------------------|
B|-----------------------------|
G|-----------------------------|
D|-2---/9-/7----5-5---5/4------|
A|-2---------------------------|
E|-0---/7-/5----3-3---3/2------| x4

[Pre-Chorus]
E|---------------------------|
B|---------------------------|
G|---------------------------|
D|-2----2--------2-----------|
A|-2----2--------2-----------|
E|-0----0-b3-----0-----------|

Never you know the devil you know
The devil you don’t
Cause better to know the devil you know
Never you don’t
Cause wherever you go
Ever you go with the devil you know
You never alone
But it’s better to know the devil you know
Devil you know

Ya, ayyy
Ya, ayyy
Ya, ayyy
The devil you know
Ya, ayyy
Ya, ayyy
Ya, ayyy
The devil you know

E|-----------------------------|
B|-----------------------------|
G|-----------------------------|
D|-2---/9-/7----5-5---5/7------|
A|-2---------------------------|
E|-0---/7-/5----3-3---3/5------|

E|-----------------------------|
B|-----------------------------|
G|-----------------------------|
D|-2---/9-/7----5-5---5/4------|
A|-2---------------------------|
E|-0---/7-/5----3-3---3/2------| x4

[Clap]
Make that money pile up baby, higher
Make that money pile up baby, higher
Make that money pile up baby, higher
Make that money pile up baby, higher

E|---------------------------|
B|---------------------------|
G|---------------------------|
D|-2----2--------2-----------|
A|-2----2--------2-----------|
E|-0----0-b3-----0-----------|

Ya, ayyy
Ya, ayyy
Ya, ayyy
The devil you know
Ya, ayyy
Ya, ayyy
Ya, ayyy
The devil you know

E|-----------------------------|
B|-----------------------------|
G|-----------------------------|
D|-2---/9-/7----5-5---5/7------|
A|-2---------------------------|
E|-0---/7-/5----3-3---3/5------|

E|-----------------------------|
B|-----------------------------|
G|-----------------------------|
D|-2---/9-/7----5-5---5/4------|
A|-2---------------------------|
E|-0---/7-/5----3-3---3/2------| x4
Outros vídeos desta música
14 exibições
    • ½ Tom
    • Am
    • Bbm
    • Bm
    • Cm
    • C#m
    • Dm
    • Ebm
    • Em
    • Fm
    • F#m
    • Gm
    • G#m
  • Adicionar à lista

Afinação da cifra

Afinador online

    0 comentários

    Ver todos os comentários

    Entre para o Cifra Club PRO

    Tenha acesso a benefícios exclusivos no App e no Site

    • Chega de anúncios

    • Mais recursos no app do Afinador

    • Atendimento Prioritário

    • Aumente seu limite de lista

    • Ajude a produzir mais conteúdo

    Cifra Club Pro

    Aproveite o Cifra Club com benefícios exclusivos e sem anúncios
    Cifra Club Pro
    Aproveite o Cifra Club com benefícios exclusivos e sem anúncios
    OK