Cifra Club

River Groove

Xavier Rudd

Cifra: Principal (violão e guitarra)
Selo Cifra Club: esta cifra foi revisada para atender aos critérios oficiais da nossa Equipe de Qualidade.
tom: C
Intro

E|------| |
B|------| |
G|------| |
D|------| |
A|------| |
E|-0----| |

E|----------------|-----------0-----|----------------|-----------0-----|
B|----------------|-3b4s5--5----5---|----------------|-3b4s5--5----5---|
G|----------------|-----------------|----------------|-----------------|
D|-----2s3-0----0-|---------------0-|-2s3-2s3-0----0-|---------------0-|
A|-0h3------------|-----------------|-2s3-2s3-0------|-----------------|
E|------------0---|-----------------|-2s3-2s3-0--0---|-----------------|

E|--------------|-----0-------|----------------|-----------0-----|
B|--------------|-0------0----|----------------|-3b4s5--5----5---|
G|---------0----|----------0--|----------------|-----------------|
D|-----2s3------|-------------|-2s3-2s3-0----0-|---------------0-|
A|-0h3----------|-------------|-2s3-2s3-0------|-----------------|
E|--------------|-------------|-2s3-2s3-0--0---|-----------------|

E|----------------|-----------0-----|----------------|-----------0-----|
B|----------------|-3b4s5--5----5---|----------------|-3b4s5--5----5---|
G|----------------|-----------------|----------------|-----------------|
D|-----2s3-0----0-|---------------0-|-2s3-2s3-0----0-|---------------0-|
A|-0h3------------|-----------------|-2s3-2s3-0------|-----------------|
E|------------0---|-----------------|-2s3-2s3-0--0---|-----------------|

E|--------------|-----0-------|----------------|-----------0-----| |
B|--------------|--------0----|----------------|-3b4s5--5----5---| |
G|---------0----|-0--------0--|----------------|-----------------| |
D|-----2s3------|-------------|-2s3-2s3-0----0-|---------------0-| |
A|-0h3----------|-------------|-2s3-2s3-0------|-----------------| |
E|--------------|-------------|-2s3-2s3-0--0---|-----------------| |
00:00 / 00:00
Outros vídeos desta música
Repetir
Outros vídeos desta música
6 exibições
    • ½ Tom
    • A
    • Bb
    • B
    • C
    • Db
    • D
    • Eb
    • E
    • F
    • F#
    • G
    • Ab
  • Adicionar à lista

Afinação da cifra

Afinador online

    0 comentários

    Ver todos os comentários

    Entre para o Cifra Club PRO

    Tenha acesso a benefícios exclusivos no App e no Site

    • Chega de anúncios

    • Mais recursos no app do Afinador

    • Atendimento Prioritário

    • Aumente seu limite de lista

    • Ajude a produzir mais conteúdo

    00:00 / 00:00

    Cifra Club Pro

    Aproveite o Cifra Club com benefícios exclusivos e sem anúncios
    Cifra Club Pro
    Aproveite o Cifra Club com benefícios exclusivos e sem anúncios
    OK