Cifra Club

Sweet Tooth Sweet Mind

Xavier Rudd

Cifra: Principal (violão e guitarra)
Selo Cifra Club: esta cifra foi revisada para atender aos critérios oficiais da nossa Equipe de Qualidade.
tom: G
 Intro

  G                 C                 D                 D
E|-----------------|-------0-----0---|-------2-----2---|-------2-----2----|
B|-------0-----0---|---1-------1---1-|---3-------3---3-|---3-------3---3--|
G|---0---0---0---0-|-----------------|-----2-------2---|-----2-------2----|
D|-----0-------0---|-----2-------2---|-0-------0-------|-0-------0--------|
A|-----------------|-3-------3-------|-----------------|------------------|
E|-3-------3-------|-----------------|-----------------|------------------|
 

  G                 C                 D                 D
E|-----------------|-------0-----0---|-------2-----2---|-------2-----2---|
B|-------0-----0---|---1-------1---1-|---3-------3---3-|---3-------3---3-|
G|---0---0---0---0-|-----------------|-----2-------2---|-----2-------2---|
D|-----0-------0---|-----2-------2---|-0-------0-------|-0-------0-------|
A|-----------------|-3-------3-------|-----------------|-----------------|
E|-3-------3-------|-----------------|-----------------|-----------------|
 

  Em                D                 C
E|-------0-----0---|-------2-----2---|-------0-----0---|
B|---0-------0---0-|---3-------3---3-|---1-------1---1-|
G|-----------------|-----2-------2---|-----------------|
D|-----2-------2---|-0-------0-------|-----2-------2---|
A|-----------------|-----------------|-3-------3-------|
E|-0-------0-------|-----------------|-----------------|
 

  G                 G
E|-----------------|-----------------| |
B|-------0-----0---|-------0-----0---| |
G|---0---0---0---0-|---0---0---0---0-| |
D|-----0-------0---|-----0-------0---| |
A|-----------------|-----------------| |
E|-3-------3-------|-3-------3-------| |
 

 Verse 1
  G                 D                 Em                C
E|-----------------|-------2-----2---|-------0-----0---|-------0-----0---|
B|-------0-----0---|---3-------3---3-|---0-------0---0-|---1-------1---1-|
G|---0---0---0---0-|-----2-------2---|-----------------|-----------------|
D|-----0-------0---|-0-------0-------|-----2-------2---|-----2-------2---|
A|-----------------|-----------------|-----------------|-3-------3-------|
E|-3-------3-------|-----------------|-0-------0-------|-----------------|
 

  G                 D                 Em                C
E|-----------------|-------2-----2---|-------0-----0---|-------0-----0---|
B|-------0-----0---|---3-------3---3-|---0-------0---0-|---1-------1---1-|
G|---0---0---0---0-|-----2-------2---|-----------------|-----------------|
D|-----0-------0---|-0-------0-------|-----2-------2---|-----2-------2---|
A|-----------------|-----------------|-----------------|-3-------3-------|
E|-3-------3-------|-----------------|-0-------0-------|-----------------|
 

  G                 D                 Em                C
E|-----------------|-------2-----2---|-------0-----0---|-------0-----0---|
B|-------0-----0---|---3-------3---3-|---0-------0---0-|---1-------1---1-|
G|---0---0---0---0-|-----2-------2---|-----------------|-----------------|
D|-----0-------0---|-0-------0-------|-----2-------2---|-----2-------2---|
A|-----------------|-----------------|-----------------|-3-------3-------|
E|-3-------3-------|-----------------|-0-------0-------|-----------------|
 

  G                 D                 C
E|-----------------|-------2-----2---|-------0-----0---|
B|-------0-----0---|---3-------3---3-|---1-------1---1-|
G|---0---0---0---0-|-----2-------2---|-----------------|
D|-----0-------0---|-0-------0-------|-----2-------2---|
A|-----------------|-----------------|-3-------3-------|
E|-3-------3-------|-----------------|-----------------|
 

  G                 G
E|-----------------|-----------------| |
B|-------0-----0---|-------0-----0---| |
G|---0---0---0---0-|---0---0---0---0-| |
D|-----0-------0---|-----0-------0---| |
A|-----------------|-----------------| |
E|-3-------3-------|-3-------3-------| |
 

 Chorus
  G                 C                 D                 D
E|-----------------|-------0-----0---|-------2-----2---|-------2-----2---|
B|-------0-----0---|---1-------1---1-|---3-------3---3-|---3-------3---3-|
G|---0---0---0---0-|-----------------|-----2-------2---|-----2-------2---|
D|-----0-------0---|-----2-------2---|-0-------0-------|-0-------0-------|
A|-----------------|-3-------3-------|-----------------|-----------------|
E|-3-------3-------|-----------------|-----------------|-----------------|
 

  G                 C                 D                 D
E|-----------------|-------0-----0---|-------2-----2---|-------2-----2---|
B|-------0-----0---|---1-------1---1-|---3-------3---3-|---3-------3---3-|
G|---0---0---0---0-|-----------------|-----2-------2---|-----2-------2---|
D|-----0-------0---|-----2-------2---|-0-------0-------|-0-------0-------|
A|-----------------|-3-------3-------|-----------------|-----------------|
E|-3-------3-------|-----------------|-----------------|-----------------|
 

  G                 C                 D                 D
E|-----------------|-------0-----0---|-------2-----2---|-------2-----2---|
B|-------0-----0---|---1-------1---1-|---3-------3---3-|---3-------3---3-|
G|---0---0---0---0-|-----------------|-----2-------2---|-----2-------2---|
D|-----0-------0---|-----2-------2---|-0-------0-------|-0-------0-------|
A|-----------------|-3-------3-------|-----------------|-----------------|
E|-3-------3-------|-----------------|-----------------|-----------------|
 

  G                 C                 D                 D
E|-----------------|-------0-----0---|-------2-----2---|-------2-----2---|
B|-------0-----0---|---1-------1---1-|---3-------3---3-|---3-------3---3-|
G|---0---0---0---0-|-----------------|-----2-------2---|-----2-------2---|
D|-----0-------0---|-----2-------2---|-0-------0-------|-0-------0-------|
A|-----------------|-3-------3-------|-----------------|-----------------|
E|-3-------3-------|-----------------|-----------------|-----------------|
 

  G                 C                 D                 D
E|-----------------|-------0-----0---|-------2-----2---|-------2-----2---|
B|-------0-----0---|---1-------1---1-|---3-------3---3-|---3-------3---3-|
G|---0---0---0---0-|-----------------|-----2-------2---|-----2-------2---|
D|-----0-------0---|-----2-------2---|-0-------0-------|-0-------0-------|
A|-----------------|-3-------3-------|-----------------|-----------------|
E|-3-------3-------|-----------------|-----------------|-----------------|
 

  G                 C                 D                 D
E|-----------------|-------0-----0---|-------2-----2---|-------2-----2---|
B|-------0-----0---|---1-------1---1-|---3-------3---3-|---3-------3---3-|
G|---0---0---0---0-|-----------------|-----2-------2---|-----2-------2---|
D|-----0-------0---|-----2-------2---|-0-------0-------|-0-------0-------|
A|-----------------|-3-------3-------|-----------------|-----------------|
E|-3-------3-------|-----------------|-----------------|-----------------|
 

  G                 C                 D                 D
E|-----------------|-------0-----0---|-------2-----2---|-------2-----2---|
B|-------0-----0---|---1-------1---1-|---3-------3---3-|---3-------3---3-|
G|---0---0---0---0-|-----------------|-----2-------2---|-----2-------2---|
D|-----0-------0---|-----2-------2---|-0-------0-------|-0-------0-------|
A|-----------------|-3-------3-------|-----------------|-----------------|
E|-3-------3-------|-----------------|-----------------|-----------------|
 

  Em                D                 C
E|-------0-----0---|-------2-----2---|-------0-----0---|
B|---0-------0---0-|---3-------3---3-|---1-------1---1-|
G|-----------------|-----2-------2---|-----------------|
D|-----2-------2---|-0-------0-------|-----2-------2---|
A|-----------------|-----------------|-3-------3-------|
E|-0-------0-------|-----------------|-----------------|
 

  G                 G
E|-----------------|-----------------| |
B|-------0-----0---|-------0-----0---| |
G|---0---0---0---0-|---0---0---0---0-| |
D|-----0-------0---|-----0-------0---| |
A|-----------------|-----------------| |
E|-3-------3-------|-3-------3-------| |
 

 Verse 2
  G                 D                 Em                C
E|-----------------|-------2-----2---|-------0-----0---|-------0-----0---|
B|-------0-----0---|---3-------3---3-|---0-------0---0-|---1-------1---1-|
G|---0---0---0---0-|-----2-------2---|-----------------|-----------------|
D|-----0-------0---|-0-------0-------|-----2-------2---|-----2-------2---|
A|-----------------|-----------------|-----------------|-3-------3-------|
E|-3-------3-------|-----------------|-0-------0-------|-----------------|
 

  G                 D                 Em                C
E|-----------------|-------2-----2---|-------0-----0---|-------0-----0---|
B|-------0-----0---|---3-------3---3-|---0-------0---0-|---1-------1---1-|
G|---0---0---0---0-|-----2-------2---|-----------------|-----------------|
D|-----0-------0---|-0-------0-------|-----2-------2---|-----2-------2---|
A|-----------------|-----------------|-----------------|-3-------3-------|
E|-3-------3-------|-----------------|-0-------0-------|-----------------|
 

  G                 D                 Em                C
E|-----------------|-------2-----2---|-------0-----0---|-------0-----0---|
B|-------0-----0---|---3-------3---3-|---0-------0---0-|---1-------1---1-|
G|---0---0---0---0-|-----2-------2---|-----------------|-----------------|
D|-----0-------0---|-0-------0-------|-----2-------2---|-----2-------2---|
A|-----------------|-----------------|-----------------|-3-------3-------|
E|-3-------3-------|-----------------|-0-------0-------|-----------------|
 

  G                 D                 C
E|-----------------|-------2-----2---|-------0-----0---|
B|-------0-----0---|---3-------3---3-|---1-------1---1-|
G|---0---0---0---0-|-----2-------2---|-----------------|
D|-----0-------0---|-0-------0-------|-----2-------2---|
A|-----------------|-----------------|-3-------3-------|
E|-3-------3-------|-----------------|-----------------|
 

  G                 G
E|-----------------|-----------------| |
B|-------0-----0---|-------0-----0---| |
G|---0---0---0---0-|---0---0---0---0-| |
D|-----0-------0---|-----0-------0---| |
A|-----------------|-----------------| |
E|-3-------3-------|-3-------3-------| |
 

 Chorus
  G                 C                 D                 D
E|-----------------|-------0-----0---|-------2-----2---|-------2-----2---|
B|-------0-----0---|---1-------1---1-|---3-------3---3-|---3-------3---3-|
G|---0---0---0---0-|-----------------|-----2-------2---|-----2-------2---|
D|-----0-------0---|-----2-------2---|-0-------0-------|-0-------0-------|
A|-----------------|-3-------3-------|-----------------|-----------------|
E|-3-------3-------|-----------------|-----------------|-----------------|
 

  G                 C                 D                 D
E|-----------------|-------0-----0---|-------2-----2---|-------2-----2---|
B|-------0-----0---|---1-------1---1-|---3-------3---3-|---3-------3---3-|
G|---0---0---0---0-|-----------------|-----2-------2---|-----2-------2---|
D|-----0-------0---|-----2-------2---|-0-------0-------|-0-------0-------|
A|-----------------|-3-------3-------|-----------------|-----------------|
E|-3-------3-------|-----------------|-----------------|-----------------|
 

  G                 C                 D                 D
E|-----------------|-------0-----0---|-------2-----2---|-------2-----2---|
B|-------0-----0---|---1-------1---1-|---3-------3---3-|---3-------3---3-|
G|---0---0---0---0-|-----------------|-----2-------2---|-----2-------2---|
D|-----0-------0---|-----2-------2---|-0-------0-------|-0-------0-------|
A|-----------------|-3-------3-------|-----------------|-----------------|
E|-3-------3-------|-----------------|-----------------|-----------------|
 

  G                 C                 D                 D
E|-----------------|-------0-----0---|-------2-----2---|-------2-----2---|
B|-------0-----0---|---1-------1---1-|---3-------3---3-|---3-------3---3-|
G|---0---0---0---0-|-----------------|-----2-------2---|-----2-------2---|
D|-----0-------0---|-----2-------2---|-0-------0-------|-0-------0-------|
A|-----------------|-3-------3-------|-----------------|-----------------|
E|-3-------3-------|-----------------|-----------------|-----------------|
 

  G                 C                 D                 D
E|-----------------|-------0-----0---|-------2-----2---|-------2-----2---|
B|-------0-----0---|---1-------1---1-|---3-------3---3-|---3-------3---3-|
G|---0---0---0---0-|-----------------|-----2-------2---|-----2-------2---|
D|-----0-------0---|-----2-------2---|-0-------0-------|-0-------0-------|
A|-----------------|-3-------3-------|-----------------|-----------------|
E|-3-------3-------|-----------------|-----------------|-----------------|
 

  G                 C                 D                 D
E|-----------------|-------0-----0---|-------2-----2---|-------2-----2---|
B|-------0-----0---|---1-------1---1-|---3-------3---3-|---3-------3---3-|
G|---0---0---0---0-|-----------------|-----2-------2---|-----2-------2---|
D|-----0-------0---|-----2-------2---|-0-------0-------|-0-------0-------|
A|-----------------|-3-------3-------|-----------------|-----------------|
E|-3-------3-------|-----------------|-----------------|-----------------|
 

  G                 C                 D                 D
E|-----------------|-------0-----0---|-------2-----2---|-------2-----2---| |
B|-------0-----0---|---1-------1---1-|---3-------3---3-|---3-------3---3-| |
G|---0---0---0---0-|-----------------|-----2-------2---|-----2-------2---| |
D|-----0-------0---|-----2-------2---|-0-------0-------|-0-------0-------| |
A|-----------------|-3-------3-------|-----------------|-----------------| |
E|-3-------3-------|-----------------|-----------------|-----------------| |
 

 Bridge
  Em                D                 C                 G
E|-------0-----0---|-------2-----2---|-------0-----0---|-----------------|
B|---0-------0---0-|---3-------3---3-|---1-------1---1-|-------0-----0---|
G|-----------------|-----2-------2---|-----------------|---0---0---0---0-|
D|-----2-------2---|-0-------0-------|-----2-------2---|-----0-------0---|
A|-----------------|-----------------|-3-------3-------|-----------------|
E|-0-------0-------|-----------------|-----------------|-3-------3-------|
 

  Em                D                 C                 G
E|-------0-----0---|-------2-----2---|-------0-----0---|-----------------|
B|---0-------0---0-|---3-------3---3-|---1-------1---1-|-------0-----0---|
G|-----------------|-----2-------2---|-----------------|---0---0---0---0-|
D|-----2-------2---|-0-------0-------|-----2-------2---|-----0-------0---|
A|-----------------|-----------------|-3-------3-------|-----------------|
E|-0-------0-------|-----------------|-----------------|-3-------3-------|
 

  Em                D                 C                 G
E|-------0-----0---|-------2-----2---|-------0-----0---|-----------------|
B|---0-------0---0-|---3-------3---3-|---1-------1---1-|-------0-----0---|
G|-----------------|-----2-------2---|-----------------|---0---0---0---0-|
D|-----2-------2---|-0-------0-------|-----2-------2---|-----0-------0---|
A|-----------------|-----------------|-3-------3-------|-----------------|
E|-0-------0-------|-----------------|-----------------|-3-------3-------|
 

  Em                D                 C                 G
E|-------0-----0---|-------2-----2---|-------0-----0---|--------------|--------| |
B|---0-------0---0-|---3-------3---3-|---1-------1---1-|-------0------|--------| |
G|-----------------|-----2-------2---|-----------------|---0---0------|--------| |
D|-----2-------2---|-0-------0-------|-----2-------2---|-----0--------|--------| |
A|-----------------|-----------------|-3-------3-------|--------------|--------| |
E|-0-------0-------|-----------------|-----------------|-3-------3----|-(3)----| |
 

 Chorus
  G                 C                 D                 D
E|-----------------|-------0-----0---|-------2-----2---|-------2-----2---|
B|-------0-----0---|---1-------1---1-|---3-------3---3-|---3-------3---3-|
G|---0---0---0---0-|-----------------|-----2-------2---|-----2-------2---|
D|-----0-------0---|-----2-------2---|-0-------0-------|-0-------0-------|
A|-----------------|-3-------3-------|-----------------|-----------------|
E|-3-------3-------|-----------------|-----------------|-----------------|
 

  G                 C                 D                 D
E|-----------------|-------0-----0---|-------2-----2---|-------2-----2---|
B|-------0-----0---|---1-------1---1-|---3-------3---3-|---3-------3---3-|
G|---0---0---0---0-|-----------------|-----2-------2---|-----2-------2---|
D|-----0-------0---|-----2-------2---|-0-------0-------|-0-------0-------|
A|-----------------|-3-------3-------|-----------------|-----------------|
E|-3-------3-------|-----------------|-----------------|-----------------|
 

  G                 C                 D                 D
E|-----------------|-------0-----0---|-------2-----2---|-------2-----2---|
B|-------0-----0---|---1-------1---1-|---3-------3---3-|---3-------3---3-|
G|---0---0---0---0-|-----------------|-----2-------2---|-----2-------2---|
D|-----0-------0---|-----2-------2---|-0-------0-------|-0-------0-------|
A|-----------------|-3-------3-------|-----------------|-----------------|
E|-3-------3-------|-----------------|-----------------|-----------------|
 

  G                 C                 D                 D
E|-----------------|-------0-----0---|-------2-----2---|-------2-----2---|
B|-------0-----0---|---1-------1---1-|---3-------3---3-|---3-------3---3-|
G|---0---0---0---0-|-----------------|-----2-------2---|-----2-------2---|
D|-----0-------0---|-----2-------2---|-0-------0-------|-0-------0-------|
A|-----------------|-3-------3-------|-----------------|-----------------|
E|-3-------3-------|-----------------|-----------------|-----------------|
 

  G                 C                 D                 D
E|-----------------|-------0-----0---|-------2-----2---|-------2-----2---|
B|-------0-----0---|---1-------1---1-|---3-------3---3-|---3-------3---3-|
G|---0---0---0---0-|-----------------|-----2-------2---|-----2-------2---|
D|-----0-------0---|-----2-------2---|-0-------0-------|-0-------0-------|
A|-----------------|-3-------3-------|-----------------|-----------------|
E|-3-------3-------|-----------------|-----------------|-----------------|
 

  G                 C                 D                 D
E|-----------------|-------0-----0---|-------2-----2---|-------2-----2---|
B|-------0-----0---|---1-------1---1-|---3-------3---3-|---3-------3---3-|
G|---0---0---0---0-|-----------------|-----2-------2---|-----2-------2---|
D|-----0-------0---|-----2-------2---|-0-------0-------|-0-------0-------|
A|-----------------|-3-------3-------|-----------------|-----------------|
E|-3-------3-------|-----------------|-----------------|-----------------|
 

  G                 C                 D                 D
E|-----------------|-------0-----0---|-------2-----2---|-------2-----2---|
B|-------0-----0---|---1-------1---1-|---3-------3---3-|---3-------3---3-|
G|---0---0---0---0-|-----------------|-----2-------2---|-----2-------2---|
D|-----0-------0---|-----2-------2---|-0-------0-------|-0-------0-------|
A|-----------------|-3-------3-------|-----------------|-----------------|
E|-3-------3-------|-----------------|-----------------|-----------------|
 

  G                 C                 D                 D
E|-----------------|-------0-----0---|-------2-----2---|-------2-----2---|
B|-------0-----0---|---1-------1---1-|---3-------3---3-|---3-------3---3-|
G|---0---0---0---0-|-----------------|-----2-------2---|-----2-------2---|
D|-----0-------0---|-----2-------2---|-0-------0-------|-0-------0-------|
A|-----------------|-3-------3-------|-----------------|-----------------|
E|-3-------3-------|-----------------|-----------------|-----------------|
 

  G                 C                 D                 D
E|-----------------|-------0-----0---|-------2-----2---|-------2-----2---|
B|-------0-----0---|---1-------1---1-|---3-------3---3-|---3-------3---3-|
G|---0---0---0---0-|-----------------|-----2-------2---|-----2-------2---|
D|-----0-------0---|-----2-------2---|-0-------0-------|-0-------0-------|
A|-----------------|-3-------3-------|-----------------|-----------------|
E|-3-------3-------|-----------------|-----------------|-----------------|
 

  G           C    G
E|----------------|----------|--------*|
B|-------0-----1--|----------|--------*|
G|---0---0---0-0--|-0--------|-(0)----*|
D|-----0----------|-0--------|-(0)----*|
A|-------------3--|----------|--------*|
E|-3-------3------|-3--------|-(3)----*|
 

 
Green light stalled to red, I guess i took a dive
Mixed thoughts raced through my head
she touched wood so many times
swallow the seed within myself, I'll give
to her whats mine for keeps, coz
she blossoms in me

sitting beside me you will still the sun
shone on my but the wind was chilled
and i took your hand and touched your face
but in the concrete jungle my eyes were grey, so
i sucked my slurpy and rubbed my hair, my beard
grew itchy and my feet were bare and you were searching
for me but the warmth was scarce, the black hole open
the spark was dead and I was so far away from you

Hands linked, pleasure gained lets chocolate, let confide
sweet tooth, sweet mind
did i deserve her beautiful smile
swallow the seed within myself I give
to her but not for keeps
she still blossoms in me

such a huge heart for your tiny size
and i will honour this for all my life
and whern you down your huge heart
will pull through
turn and face the glass and be proud of you.
Outros vídeos desta música
3 exibições
    • ½ Tom
    • A
    • Bb
    • B
    • C
    • Db
    • D
    • Eb
    • E
    • F
    • F#
    • G
    • Ab
  • Adicionar à lista

Afinação da cifra

Afinador online

    0 comentários

    Ver todos os comentários

    Entre para o Cifra Club PRO

    Tenha acesso a benefícios exclusivos no App e no Site

    • Chega de anúncios

    • Mais recursos no app do Afinador

    • Atendimento Prioritário

    • Aumente seu limite de lista

    • Ajude a produzir mais conteúdo

    Cifra Club Pro

    Aproveite o Cifra Club com benefícios exclusivos e sem anúncios
    Cifra Club Pro
    Aproveite o Cifra Club com benefícios exclusivos e sem anúncios
    OK