Cifra Club

Aprenda

Ilariê

Xuxa

Cifra: Principal (violão e guitarra)
Tom: F#
Intro: F# C# F# C# F# C#

Intro + Riff durante a música
E|-------------------------------------------------------------------|
B|-------------------------------------------------------------------|
G|-------------------------------------------------------------------|
D|-------------------------------------------------------------------|
A|-----4--6--4--6--4---------4--6--4--6--4---------4--6--4--6--4-----|
E|--2-----------------4~--4-----------------2~--2-----------------4~-|

E|-----------------------|
B|--6--------------------|
G|-----6-----------------|
D|--------8--6--4--------|
A|-----------------------|
E|-----------------------|
 
F#            C#
Tá na hora, tá na hora
               F#
Tá na hora de brincar
            C#
Pula, pula bole, bole
         F#
Se embolando sem parar
E|---------------|
B|---------------|
G|--6--8--9--10--|
D|---------------|
A|---------------|
E|---------------|

         C#
Dá um pulo vai pra frente
                F#
De peixinho vai pra trás
                     C#
Quem quiser brincar com a gente
               F#
Pode vir nunca é demais

F#
Ilari, lariê
    C#
O, o, o
Ilari, lariê
    F#
O, o, o
Ilari, lari , lariê
    C#
O, o, o
              B             C#     F#
É a turma da xuxa que vai dando seu alô
Composição de Ceinha / Cid Guerreiro / Dito
Colaboração e revisão:
145.590 exibições
    • ½ Tom
    • A
    • Bb
    • B
    • C
    • Db
    • D
    • Eb
    • E
    • F
    • F#
    • G
    • Ab
  • Adicionar à lista

    0 comentários

    Mostrar mais comentários

    Conseguiu tocar?

    0 Tocaram 2 Ainda não

    Grave um vídeo tocando Ilariê e mande pra gente!

    00:00 / 00:00
    outros vídeos desta música
    repetir qualidade Automático
    Outros vídeos desta música
    00:00 / 00:00
    Automático

    Cifra Club Pro

    Aproveite o Cifra Club com benefícios exclusivos e sem anúncios
    Cifra Club Pro
    Aproveite o Cifra Club com benefícios exclusivos e sem anúncios
    OK