Cifra Club

Ex Bitch

XXXTENTACION

Cifra: Principal (violão e guitarra)
Selo Cifra Club: esta cifra foi revisada para atender aos critérios oficiais da nossa Equipe de Qualidade.
tom: G (forma dos acordes no tom de C) Capotraste na 7ª casa
[Intro] C  G/B  Am  Em7  F  G


E|-------------------------------------|
B|----1---------0----------------------|
G|----0---------0----------------------|
D|----2---------0----------------------|
A|-3----X-3--2----X-2------------------|
E|------X---------X--------------------|

E|-------------------------------------|
B|----1--------------------------------|
G|----2---------0----------------------|
D|----2---------2----------------------|
A|-0----X-0-------X--------------------|
E|------X----0----X-0------------------|

E|-------------------------------------|
B|-------------------------------------|
G|----0---------0----------------------|
D|----2---------2----------------------|
A|------X------------------------------|
E|-1----X-1--1----x-1------------------|

E|----0--1--0--------------------------|
B|-0-----------------------------------|
G|-0-----------------------------------|
D|-0-----------------------------------|
A|-------------------------------------|
E|-3-----3--3--------------------------|

Hey, hey, hey

C
I just fucked my ex bitch
G/B
Pull up on the next bitch
Am
Like, what's up? Give neck, bitch
Em7
Please open your legs, bitch
F
No, I'm not your daddy, bitch
F
But I could be your daddy, bitch
G
Got big legs like a caddy, bitch

Really wanna fuck, send the addy, bitch
C
Know your daddy proud of you
G/B
Real bad bitch with a attitude
Am
Know the whole school was fuckin' you
Em7
Really mad a nigga was cuffin' you
F                                   G
Really make a nigga uncomfortable, hey

C        G/B    Am        Em7
So where we go as we walk this lonely road?
F            G
So where we go?
C        G/B    Am        Em7
So where we go as we walk this lonely road?
F            G
So where we go? Hey, hey

C
I just fucked my ex bitch
G/B
Pull up on the next bitch
Am
Like, what's up? Give neck, bitch
Em7
Please open your legs, bitch
F
No, I'm not your daddy, bitch
F
But I could be your daddy, bitch
G
Got big legs like a caddy, bitch

Really wanna fuck, send the addy, bitch
C
Know your daddy proud of you
G/B
Real bad bitch with a attitude
Am
Know the whole school was fuckin' you
Em7
Really mad a nigga was cuffin' you
F                                   G
Really make a nigga uncomfortable, hey, hey

C        G/B    Am        Em7
So where we go as we walk this lonely road?
F            G
So where we go?
C        G/B    Am        Em7
So where we go as we walk this lonely road?
F            G
So where we go?
00:00 / 00:00
Outros vídeos desta música
Repetir
Outros vídeos desta música
10.177 exibições
    • ½ Tom
    • A
    • Bb
    • B
    • C
    • Db
    • D
    • Eb
    • E
    • F
    • F#
    • G
    • Ab
  • Adicionar à lista

Afinação da cifra

Afinador online

    0 comentários

    Ver todos os comentários

    Entre para o Cifra Club PRO

    Tenha acesso a benefícios exclusivos no App e no Site

    • Chega de anúncios

    • Mais recursos no app do Afinador

    • Atendimento Prioritário

    • Aumente seu limite de lista

    • Ajude a produzir mais conteúdo

    00:00 / 00:00

    Cifra Club Pro

    Aproveite o Cifra Club com benefícios exclusivos e sem anúncios
    Cifra Club Pro
    Aproveite o Cifra Club com benefícios exclusivos e sem anúncios
    OK