Cifra Club

Open The Gate

Zach Bryan

Cifra: Principal (violão e guitarra)
Selo Cifra Club: esta cifra foi revisada para atender aos critérios oficiais da nossa Equipe de Qualidade.
tom: Em
INTRO: (Can play Chords OR Fill)
Em
Em    C    G    D
Em    C    G    D
==================

                       - FILL -
           Em                    C                   G    D 
E|---------------------|---------------------|---------|
B|---------------------|---------------------|---------|
G|-4p2-0-2-----------0-|-4p2-0-2-----------0-|-----0---|
D|---------2-0-2-0-2---|---------2-0-2-0-2---|-0h2-----|
A|---------------------|---------------------|---------|
E|---------------------|---------------------|-------3-|

           Em                    C                   G    D 
E|---------------------|---------------------|---------|
B|---------------------|---------------------|---------|
G|-4p2-0-2-----------0-|-4p2-0-2-----------0-|-----0---|
D|---------2-0-2-0-2---|---------2-0-2-0-2---|-0h2-----|
A|---------------------|---------------------|---------|
E|---------------------|---------------------|-------3-|


VERSE:
                  Em
Well I heard you died out in Cheyenne
         C
With my mother's ring on your hand
   G                              D
A note in your pocket said "I'll love you till I die"

       Em                           C
I can hear the bulls are coming to claim that they've been hunting
     G                         D
The son of the cowboy came to claim his daddy's right

        Em                            C
And my baby she's been crying at the thought of me dying
     G                           D                       D
She knows there's no stopping a man and his foolish pride


CHORUS:
             C
So open the gates
             G
I'm here to prove
                    D
I'm better than my father was
                       Em
And where he came from too

          C
Open the gates
             G
I'm here to ride
          D
To Hell I Go
                  Em
With daddy by my side


INSTRUMENTAL:
Em    C    G    D
==================

           Em                    C                   G    D 
E|---------------------|---------------------|---------|
B|---------------------|---------------------|---------|
G|-4p2-0-2-----------0-|-4p2-0-2-----------0-|-----0---|
D|---------2-0-2-0-2---|---------2-0-2-0-2---|-0h2-----|
A|---------------------|---------------------|---------|
E|---------------------|---------------------|-------3-|


VERSE:
       Em
And I ain't never feared nothing
          C
That was four-legged and bucking
 G
Throw me on a hurricane
          D
And I'll ride it to the coast

              Em
You'll never know that your son
        C
Came to do what you should've done
      G
On a summer day a long time ago
       D
Top a bull named To Hell I Go


CHORUS:
             C
So open the gates
             G
I'm here to prove
                    D
I'm better than my father was
                       Em
And where he came from too

          C
Open the gates
             G
I'm here to ride
          D
To Hell I Go
                  Em
With daddy by my side


INSTRUMENTAL:
Em    C    G    D
==================

           Em                    C                   G    D 
E|---------------------|---------------------|---------|
B|---------------------|---------------------|---------|
G|-4p2-0-2-----------0-|-4p2-0-2-----------0-|-----0---|
D|---------2-0-2-0-2---|---------2-0-2-0-2---|-0h2-----|
A|---------------------|---------------------|---------|
E|---------------------|---------------------|-------3-|


VERSE:
        Em
WI'll I die out in Cheyenne
         C
With my baby there crying
       G                                D
And a belly that's been growing by the day

       Em
And I know that my son
         C
Will do what his father should've done
   G
A long, long time ago
      D
On a bull named To Hell I Go


CHORUS:
             C
So open the gates
              G
He's here to prove
                      D
He's better than his father was
                       Em
And where he came from too

          C
Open the gates
              G
He's here to ride
                D
To Hell I Go's calf
                   Em
With daddy by his side
Outros vídeos desta música
44 exibições
    • ½ Tom
    • Am
    • Bbm
    • Bm
    • Cm
    • C#m
    • Dm
    • Ebm
    • Em
    • Fm
    • F#m
    • Gm
    • G#m
  • Adicionar à lista

Afinação da cifra

Afinador online

    0 comentários

    Ver todos os comentários

    Entre para o Cifra Club PRO

    Tenha acesso a benefícios exclusivos no App e no Site

    • Chega de anúncios

    • Mais recursos no app do Afinador

    • Atendimento Prioritário

    • Aumente seu limite de lista

    • Ajude a produzir mais conteúdo

    Cifra Club Pro

    Aproveite o Cifra Club com benefícios exclusivos e sem anúncios
    Cifra Club Pro
    Aproveite o Cifra Club com benefícios exclusivos e sem anúncios
    OK