Cifra Club

Depois da Enchente

Zander

Cifra: Principal (violão e guitarra)
Tom: D
[intro] D9

|-----------0----------------------0-----|
|-------3------3----------------3-----3--|
|----2-----------------2-----2-----------|
|-0-----------------------0--------------|
|----------------------------------------|
|----------------------------------------|


|--------------------------------------------|
|--------------3-----------------------3-----|
|-------0---------0-------------0---------0--|
|----------0-----------------------0---------|
|-0-2---------------------0-2----------------|
|--------------------------------------------|

[D9 Bm]
Já não me sinto tão mal em relação ao que disse pra me
manter aqui
Tão longe do seu olhar
Sempre a me criticar

E se eu disser que não dói tanto assim
A                 G
saber que já não sou
A                 G
o motivo pra te fazer sorrir
A                      G
nem quem segura a sua mão
A                   G
quando já não é preciso dizer mais nada

[D9 Bm]
E a vida segue pra mim
Afinal, as contas vão chegar
e meu endereço elas sabem de cor
e você também deve saber
talvez resolva aparecer

E se eu disser que não dói tanto assim
A                 G
saber que já não sou
A                 G
o motivo pra te fazer sorrir
A                      G
nem quem segura a sua mão
A                   G
quando já não é preciso
                    D9  Bm
dizer que eu não entendo
      D9  Bm
não entendo (9x)
G
você
       D9
não entendo
       Bm     G
não entendo você


(solo) D9 G     D9 A G

(3x)

|-10-10-10--9-9-9------------------------------|
|------------------10-10-10--------------------|
|----------------------------6-6-6-6-6--7-7--4-|
|----------------------------------------------|
|----------------------------------------------|
|----------------------------------------------|


|-10-10-10--9-9-9---------------------------------------------------|
|------------------10-10-10-----------------------------------------|
|----------------------------6-6-6-6-6--7-7h12-12-12-12-12-12-12h11-|
|-------------------------------------------------------------------|
|-------------------------------------------------------------------|
|-------------------------------------------------------------------|

Em         D         G                         Em
Imagine então se nada mais pudesse nos prender
         D          G
e eu de fato conseguisse
G                        D9
Enfim viver como deveria ser
exibições 2.159
Acordes para:
    Composição: Gabriel Zander Colaboração e revisão:
    • Marcos Rolemberg

    0 comentários

    mostrar mais comentários

    Conseguiu tocar?

    1 tocaram 0 ainda não

    Grave um vídeo tocando Depois da Enchente e mande pra gente!

    00:00 / 00:00
    outros vídeos desta música
    repetir qualidade Automático
    Outros vídeos desta música
    00:00 / 00:00
    Automático
    OK