Cifra Club

Aprenda

Fool For You

ZAYN

Cifra: Principal (violão e guitarra)
tom: G
[Intro] 

|  G   Bm  |  Em  Ddim  |  C    Cm  |   G Gsus4 G    |


[Verse] 

G        Bm      Em
    This love is tainted
C     G/B            Am       C/D
    I need you and I hate it
G          Bm               Em          Ddim
    You're caught between a dream and a movie scene
C       Cm       G   Gsus4   G
   In a way, you know what I mean


[Pre-Chorus]

Em         Em/D#      G/D   A/C#    C               D7
  When the darts just miss, I just can't resist it


[Chorus]

            G      Bm         C           Am     G/B  D
Cause I'm a foo    -    l for you and the things you do
      G        Bm         C   A/C#           G/D                  D
I'm a foo     -      l for you      and the things, the things you do

the things you do


[Bridge]

                       The things you do
   G  Bm     Em  Ddim   C    Cm     G Gsus4 G


[Verse]

Em               Em/D#        G/D
    When you're looking like this
A/C#    C
I just can't resist it
 D7
I know sometimes I hide it
      Em                         Em/D#
But I can't this time cause it's gonna defeat me
G/D        A/C#  C           D7
But if you won't believe me, believe me


[Chorus]

            G      Bm         C           Am     G/B  D
Cause I'm a foo    -     l for you and the things you do
      G        Bm         C   A/C#           G/D                  D
I'm a foo     -     l for you      and the things, the things you do

the things you do


[Bridge]

Eb      Cm7    G                 G7
I know, I know    given a chance I'd do it again
      Eb                                 Cm7
Cause I can't help myself  Cause I can't stop myself
Am                           D7
I just love being a fool for you


[Chorus]

            G      Bm         C           Am     G/B  D
Cause I'm a foo    -    l for you and the things you do
      G        Bm         C   A/C#           G/D                  D
I'm a foo    -      l for you      and the things, the things you do

G       Bm       Am/C     D7
   This love is tainted


[End] 
G
______________________________________________________________________________________
Intro and verses transcribed for guitar:

[INTRO]  
E|-3---------3--2--------2--|--3--------3--1--------1--|--------------------------|------------------------|
B|-----3--0--------3--------|-----5-----------3--------|--5--------5--4-----------|--0----1----0-----------|
G|--------------------4-----|--------4-----------4-----|-----5-----------5-----5--|-----0----0-------------|
D|--------------------------|--------------0-----------|--------5-----------5-----|------------------------|
A|--------------2-----------|--------------------------|--3-----------3-----------|------------------------|
E|-3------------------------|--0-----------------------|--------------------------|--3---------------3--2--|

[VERSE]
E|-3--------3--2--------2--|--3--------3--3-----------|--0--------0-----------3--|--0-----------0--3--0-----|
B|----3--0--------3--------|-----5-----------5-----5--|-----1--------3--0--3-----|-----1-----1-----------1--|
G|-------------------4-----|--------4-----------4-----|--------0-----------------|--------2-----------------|
D|-------------------------|--------------------------|--------------------------|--------------0-----------|
A|-------------2-----------|--------------------------|--3-----------2-----------|--0-----------------------|
E|-3-----------------------|--0-----------0-----------|--------------------------|--------------------------|
  
E|-3--------3--2--------2--|--3--------3--1--------1--|--------------------------|---------------------------|
B|----3--0--------3--------|-----5-----------3--------|--5--------5--4-----------|--0----1-L---0--L----------|
G|-------------------4-----|--------4-----------4-----|-----5-----------5-----5--|-----0-----0---------------|
D|-------------------------|--------------0-----------|--------5-----------5-----|---------------------------|
A|-------------2-----------|--------------------------|--3-----------3-----------|---------------------------|
E|-3-----------------------|--0-----------------------|--------------------------|--3------------------3--2--|
Composição de Chase Wells / James Emerson / James Griffin / Kevin Rains / Salvador Waviest / Zayn Malik
Colaboração e revisão:
  • Danillo Parreira
  • Pedro Henrique
7.177 exibições
    • ½ Tom
    • A
    • Bb
    • B
    • C
    • Db
    • D
    • Eb
    • E
    • F
    • F#
    • G
    • Ab
  • Adicionar à lista

    0 comentários

    Ver todos os comentários

    Conseguiu tocar?

    1 Tocaram 0 Ainda não

    Grave um vídeo tocando Fool For You e nos envie!

    00:00 / 00:00
    Outros vídeos desta música
    Repetir Qualidade Automático
    Outros vídeos desta música
    00:00 / 00:00
    Automático

    Cifra Club Pro

    Aproveite o Cifra Club com benefícios exclusivos e sem anúncios
    Cifra Club Pro
    Aproveite o Cifra Club com benefícios exclusivos e sem anúncios
    OK