Cifra Club

Aprenda

Enchendo e Derramando

Zé Neto e Cristiano

Cifra: Principal (violão e guitarra)
Já pensou em usar uma coleção de roupas do Cifra Club? Responda as perguntas abaixo e nos ajude nessa missão! →
tom: F (forma dos acordes no tom de D) Capotraste na 3ª casa
[Intro] D9  F#m7  G  Em  A9

(solos sem capotraste)

E|------------------------------------------|
B|------------------------------------------|
G|-3-2h3p2---3/5~--2-5-2-2/5~---------------|
D|---------3--------------------------------|
A|------------------------------------------|
E|------------------------------------------|

E|------------------------------------------|
B|----------------------------5-5h6---------|
G|-5-5h7--5-5-5-3-2-3-2---3-7---------------|
D|----------------------5-------------------|
A|------------------------------------------|
E|------------------------------------------|

E|------------------------------------------|
B|-5---5-6-8--6-5-5/6~----------------------|
G|------------------------------------------|
D|------------------------------------------|
A|------------------------------------------|
E|------------------------------------------|

[Primeira Parte]

     D9
Se pra você é mais fácil me deixar
           F#m7
Do que me perdoar
       G
Pode até não mudar
           Em
Mas vou falar
                 A4   A
Eu tenho esse direito

    D9
O que eu fiz foi de cabeça quente
         F#m7
Foi sem pensar
          G
É que só lembra do meus erros
      Em                     A4   A
E esquece que eu não sou perfeito

[Pré-Refrão]

       G            A9
Mas eu amo tanto você
     F#m7                  Bm7
E é só isso que precisa saber
           G
Eu vou continuar nesse bar
            A9
Esperando uma resposta sua

[Refrão]

                      D9
É só enchendo e derramando

Eu tento esquecer você
          F#m7
Mas eu te amo tanto

O coração que tá pedindo
        G
Eu só tô tomando
   Em
Bebendo pra matar a saudade
             A9
Que tá me matando
                      D9
É só enchendo e derramando

[Solo] F#m7  G  Em  A9

E|------------------------------------------|
B|------------------------------------------|
G|-3-2h3p2---3/5~--2-5-2-2/5~---------------|
D|---------3--------------------------------|
A|------------------------------------------|
E|------------------------------------------|

E|------------------------------------------|
B|----------------------------5-5h6---------|
G|-5-5h7--5-5-5-3-2-3-2---3-7---------------|
D|----------------------5-------------------|
A|------------------------------------------|
E|------------------------------------------|

E|------------------------------------------|
B|-8---5-6-8--6-5-5/6~----------------------|
G|------------------------------------------|
D|------------------------------------------|
A|------------------------------------------|
E|------------------------------------------|

[Pré-Refrão]

       G            A9
Mas eu amo tanto você
     F#m7                  Bm7
E é só isso que precisa saber
           G
Eu vou continuar nesse bar
            A9
Esperando uma resposta sua

[Refrão]

                      D9
É só enchendo e derramando

Eu tento esquecer você
          F#m7
Mas eu te amo tanto

O coração que tá pedindo
        G
Eu só tô tomando
   Em
Bebendo pra matar a saudade
             A9
Que tá me matando
                      D9   G  D
É só enchendo e derramando

E|------------------------------------------|
B|-------------------/8-6~------------------|
G|-2-5-2-2/5~-------------------------------|
D|-------------7-8--------------------------|
A|------------------------------------------|
E|------------------------------------------|
Composição de Pacheco
Colaboração e revisão:
  • Lucas Kappaun
35.348 exibições
    • ½ Tom
    • A
    • Bb
    • B
    • C
    • Db
    • D
    • Eb
    • E
    • F
    • F#
    • G
    • Ab
  • Adicionar à lista

    0 comentários

    Ver todos os comentários

    Conseguiu tocar?

    4 Tocaram 1 Ainda não

    Grave um vídeo tocando Enchendo e Derramando e nos envie!

    00:00 / 00:00
    outros vídeos desta música
    repetir qualidade Automático
    Outros vídeos desta música
    00:00 / 00:00
    Automático

    Cifra Club Pro

    Aproveite o Cifra Club com benefícios exclusivos e sem anúncios
    Cifra Club Pro
    Aproveite o Cifra Club com benefícios exclusivos e sem anúncios
    OK