Cifra Club

Esses Vícios

Zé Neto e Cristiano

Cifra: Principal (violão e guitarra)
tom: C (forma dos acordes no tom de A) Capotraste na 3ª casa
[Intro] A9  D9

E|------------------------------------------|
B|------------------------------------------|
G|-2h4-4/6-6/7-6-4-4h6----1-1/2-------------|
D|----------------------4-------------------|
A|------------------------------------------|
E|------------------------------------------|

[Primeira Parte]

  A9
E esse carro
                        D9
Tá bebendo menos do que eu
     A9
E essas moedas

Tão valendo muito mais
             D9
Do que esse meu coração

[Pré-Refrão]

        A9
Esse café sem açúcar
                             D9
Tá menos amargo que a minha vida
           Bm7
E a cada trago que não te traz
     D9                       A9
Eu anestesio a dor e bato as cinzas

[Refrão]

                        A
Entre o álcool e a nicotina

Tem você que é pior
                  F#m
Pelo menos esses vícios

Nunca me deixaram só
                  Bm7
E se eu sou dependente

Foi você quem me deixou
                     D9
Se o que mata de verdade
                   E
É a droga do seu amor

                        A
Entre o álcool e a nicotina

Tem você que é pior
                  F#m
Pelo menos esses vícios

Nunca me deixaram só
                  Bm7
E se eu sou dependente

Foi você quem me deixou
                     D
Se o que mata de verdade
                   E
É a droga do seu amor
         D
Do seu amor

[Solo] D9  A9  Bm7  D9

E|------------------------------------------|
B|---------------2-2/3-2--------------------|
G|-------1/2-1-4----------4-2-4/6-4-4-2-2---|
D|-2-4-2------------------------------------|
A|------------------------------------------|
E|------------------------------------------|

E|------------------------------------------|
B|---------2-2/3-2--------------------------|
G|-1/2-2/4----------4p2-4/6-4-4-2-2---------|
D|------------------------------------------|
A|------------------------------------------|
E|------------------------------------------|

E|------------------------------------------|
B|------------------------------------------|
G|---------------6-7p6-4--------------------|
D|---------4/7-9---------7------------------|
A|-------4----------------------------------|
E|-5-5/7------------------------------------|

E|------------------------------------------|
B|-----0---0-----0---0-----0----------------|
G|------------------------------------------|
D|-7/9---4---4/7---2---2/4------------------|
A|------------------------------------------|
E|------------------------------------------|

E|------------------------------------------|
B|-----0---0-----0---0----------------------|
G|------------------------------------------|
D|-4/9---4---4/7---2---2/4------------------|
A|------------------------------------------|
E|------------------------------------------|

E|------------------------------------------|
B|-------------------------------2/3-3-3-2--|
G|------------------------------------------|
D|------------------7-6-7/9-9/7-------------|
A|-----------5-7/9--9-7-9-------------------|
E|-5~--5-5/7--------------------------------|

[Pré-Refrão]

        A9
Esse café sem açúcar
                             D9
Tá menos amargo que a minha vida
           Bm7
E a cada trago que não te traz
     D9                       A9
Eu anestesio a dor e bato as cinzas

[Refrão]

                        A
Entre o álcool e a nicotina

Tem você que é pior
                  F#m
Pelo menos esses vícios

Nunca me deixaram só
                  Bm7
E se eu sou dependente

Foi você quem me deixou
                     D
Se o que mata de verdade
                   E
É a droga do seu amor

                        A
Entre o álcool e a nicotina

Tem você que é pior
                  F#m
Pelo menos esses vícios

Nunca me deixaram só
                  Bm7
E se eu sou dependente

Foi você quem me deixou
                     D
Se o que mata de verdade
                   E
É a droga do seu amor
         D
Do seu amor

[Final] D9  A9
00:00 / 00:00
Outros vídeos desta música
Repetir
Outros vídeos desta música
Composição de Cristhyan Ribeiro / Douglas Mello / Flávinho Tinto / Matheus De Santana / Nando Marx
Colaboração e revisão:
  • Thiago Almeida
19.707 exibições
    • ½ Tom
    • A
    • Bb
    • B
    • C
    • Db
    • D
    • Eb
    • E
    • F
    • F#
    • G
    • Ab
  • Adicionar à lista

    0 comentários

    Ver todos os comentários
    00:00 / 00:00

    Cifra Club Pro

    Aproveite o Cifra Club com benefícios exclusivos e sem anúncios
    Cifra Club Pro
    Aproveite o Cifra Club com benefícios exclusivos e sem anúncios
    OK