Cifra Club

Aprenda

Ás de Espadas

Zé Ramalho

Cifra: Principal (violão e guitarra)
tom: Db
[Intro] Gb  Gb5  Gb  Gb5  
        Gb  Ab5  Eb5

E|-----------------|-------------------|
B|-------------4b--|--------4b---------|
G|--3-2-0--3-2-----|--3-2-0-----3-2-0--|
D|-----------------|-------------------|
A|-----------------|-------------------|
E|-----------------|-------------------|

    Gb
Eu sou o cara certo

Se você quer aprontar

Perder ou ganhar     
                 Eb
É tudo igual pra mim

E|---------------|----------------|
B|---------------|----------------|
G|--5b6-5-3-5-3--|--5b6-5-3-------|
D|---------------|----------------|
A|---------------|-----------6~~--|
E|---------------|----------------|

E|---------------|----------------|
B|---------------|----------------|
G|--5b6-5-3-5-3--|--5b6-5-3-------|
D|---------------|----------------|
A|---------------|-----------6~~--|
E|---------------|----------------|

    Db
Eu jogo por prazer
        B             Ebm  Eb5
Sem a ganância de vencer

E|---------------|----------------|
B|---------------|----------------|
G|--5b6-5-3-5-3--|--5b6-5-3-------|
D|---------------|----------------|
A|---------------|-----------6~~--|
E|---------------|----------------|

Db
Eu já tenho a marca
      B
Só preciso da carta
    Eb
Do ás de espadas

E|---------|
B|---------|
G|--3-2-0--|
D|---------|
A|---------|
E|---------|

Do ás de espadas

E|---------|---------|---------|
B|---------|---------|---------|
G|--3-2-0--|--3-2-0--|--3-2-0--|
D|---------|---------|---------|
A|---------|---------|---------|
E|---------|---------|---------|


Gb
Arriscando tudo

Pra santo com diabo

Se está tudo contra
Eb     Ebm
Aí tá bom pra mim

E|---------------|---------------|
B|---------------|---------------|
G|--5b6-5-3-5-3--|-5b6-5-3-------| 2x
D|---------------|---------------|
A|---------------|----------6~~--|
E|---------------|---------------|

Db
Seja sete ou quinze
      B                 Ebm  Eb
Dois olhos de cobra eu vi

E|---------------|---------------|
B|---------------|---------------|
G|--5b6-5-3-5-3--|-5b6-5-3-------|
D|---------------|---------------|
A|---------------|----------6~~--|
E|---------------|---------------|

E|---------------|---------------|
B|---------------|---------------|
G|--5b6-5-3-5-3--|-5b6-5-3-------|
D|---------------|---------------|
A|---------------|----------6~~--|
E|---------------|---------------|

Db
Dobrar ou desistir

Dobrar o lucro ou dividir
    Eb
Do ás de espadas

Do ás de espadas

E|-----------------|-------------------|
B|-------------4b--|--------4b---------|
G|--3-2-0--3-2-----|--3-2-0-----3-2-0--|
D|-----------------|-------------------|
A|-----------------|-------------------|
E|-----------------|-------------------|


Ninguém sabe perder

Não aposta com mané

Tá tudo como eu gosto
              Db                    Bbm
Baby, ninguém vai vencer pra sempre
       Bb5   B     C   
Não esqueça do coringa

E|--------------------------------------------------------------|
B|----7---9---7---9---7---9-------------------------------------|
G|--8---8---8---8---8---8---------------------------------------|
D|--------------------------------------------------------------|
A|--------------------------------------------------------------|
E|--------------------------------------------------------------|

E|--------------------------------------------------------------|
B|----9---11---9---11---9---11----------------------------------|
G|--8---8----8---8----8---8-------------------------------------|
D|--------------------------------------------------------------|
A|--------------------------------------------------------------|
E|--------------------------------------------------------------|

E|--------------------------------------------------------------|
B|--11-7-9-7-9-7-9-7-9-7-9-7-9-7-9-7-9-7-9----------------------|
G|--------------------------------------------------------------|
D|--------------------------------------------------------------|
A|--------------------------------------------------------------|
E|--------------------------------------------------------------|

E|---------|----------------------------------------------------|
B|---------|--15b16r15--15b16r15-15b16r15-15b16r15-15b16r15-16--|
G|--8-8-8--|----------------------------------------------------|
D|--8-8-8--|----------------------------------------------------|
A|--6-6-6--|----------------------------------------------------|
E|---------|----------------------------------------------------|

( Ab5  Bb5  Ab  Eb )

   Gb
Aumente o seu valor

É o que tem que fazer

Bem aí na mente
                       Eb   
Na mão do morto outra vez

E|---------------|---------------|
B|---------------|---------------|
G|--5b6-5-3-5-3--|-5b6-5-3-------|
D|---------------|---------------|
A|---------------|----------6~~--|
E|---------------|---------------|

E|---------------|---------------|
B|---------------|---------------|
G|--5b6-5-3-5-3--|-5b6-5-3-------|
D|---------------|---------------|
A|---------------|----------6~~--|
E|---------------|---------------|

    Db
Eu vejo em seu olhar
       B   
Tu vai morrer sem acreditar

E|---------------|---------------|
B|---------------|---------------|
G|--5b6-5-3-5-3--|-5b6-5-3-------|
D|---------------|---------------|
A|---------------|----------6~~--|
E|---------------|---------------|

   Db5
E só o que vai ver

Você sabe o que vai ser
  Eb
O ás de espadas

E|---------|
B|---------|
G|--3-2-0--|
D|---------|
A|---------|
E|---------|

O ás de espadas

E|---------|
B|---------|
G|--3-2-0--|
D|---------|
A|---------|
E|---------|

O ás de espadas

E|---------|
B|---------|
G|--3-2-0--|
D|---------|
A|---------|
E|---------|

O ás de espadas
E|-------------------------------------------------|
B|--15b16r15--15b16r15-15b16r15-15b16r15-15b16r15--|
G|-------------------------------------------------|
D|-------------------------------------------------|
A|-------------------------------------------------|
E|-------------------------------------------------|

E|-------------------------------------------------|
B|--15b16r15--15b16r15-15b16r15-15b16r15-15b16r15--|
G|-------------------------------------------------|
D|-------------------------------------------------|
A|-------------------------------------------------|
E|-------------------------------------------------|

E|---------|
B|---------|
G|---------|
D|---------|
A|--5-3-5--|
E|---------|

Db  B  Db  B  Ebm  Eb
Composição de Eddie Clarke / Ian Kilmister / Phill Taylor / Robertinho de Recife
Colaboração e revisão:
  • Gilson Feitosa
332 exibições
    • ½ Tom
    • A
    • Bb
    • B
    • C
    • Db
    • D
    • Eb
    • E
    • F
    • F#
    • G
    • Ab
  • Adicionar à lista

    0 comentários

    Ver todos os comentários

    Conseguiu tocar?

    0 Tocaram 0 Ainda não

    Grave um vídeo tocando Ás de Espadas e nos envie!

    00:00 / 00:00
    Outros vídeos desta música
    Repetir Qualidade Automático
    Outros vídeos desta música
    00:00 / 00:00
    Automático

    Cifra Club Pro

    Aproveite o Cifra Club com benefícios exclusivos e sem anúncios
    Cifra Club Pro
    Aproveite o Cifra Club com benefícios exclusivos e sem anúncios
    OK