Cifra Club

Entre a Serpente e a Estrela

Zé Ramalho

Cifra: Principal
exibições 637.005
Tom: G
Intro: C Em F G C Em F G

E|-----------5---------|--------------------|---------------------|---------------|
B|--8-------------8----|--5-----------------|---------------------|---------------|
G|---------------------|---------------7----|--5-------------5----|---------------|
D|---------------------|--------------------|-----------7---------|--7---5--------|
A|---------------------|--------------------|---------------------|---------------|
E|---------------------|--------------------|---------------------|---------------|

E|-----------5---------|--------------------|---------------------|---------------|
B|--8-------------8----|--5-----------------|---------------------|---------------|
G|---------------------|---------------7----|--5-------------5----|---------------|
D|---------------------|--------------------|-----------7---------|--7---5--------|
A|---------------------|--------------------|---------------------|---------------|
E|---------------------|--------------------|---------------------|---------------|


C                   Em       F       C
   Há um brilho de faca onde o amor vier
C                Em        F       G
   E ninguém tem o mapa da alma da mulher
         F           G                    C  Em  F
Ninguém sai com o coração sem sangrar ao tentar reve-la
C              Em                  F
   Um ser maravilhoso, entre a serpente e a estrela

(C Em F C Em F)

C                     Em              F           C
   Um grande amor no passado se transforma em aversão
C                 Em         F          G
   E os dois lado à lado corroem o coração
    F            G                   C            Em        F
Não existe saudade mais cortante que o de um grande amor ausente
 C             G        F  G
Dura feito diamante corta a ilusão da gente

(C Em F G A)

D                    F#m     G            D
   Toco a vida pra frente fingindo não sofrer
D                  F#m      G             A
   Mas o peito dormente espera um bem querer
   G             A                D      F#m   G
E sei que não será surpresa se o futuro me trouxer
D              F#m           G            D
  O passado de volta num semblante de mulher
Acordes para:
    Colaboração e revisão:

    0 comentários

      mostrar mais comentários

      Conseguiu tocar?

      19tocaram0ainda não

      Grave um vídeo tocando Entre a Serpente e a Estrela e mande pra gente!

      00:00 / 00:00
      outros vídeos desta música
      repetirqualidadeautomática
      Outro vídeos desta música
        00:00 / 00:00
        automática
        OK