Cifra Club

Sinal Disfarçado (part. Israel Novaes)

Zé Ricardo e Thiago

Cifra: Principal
exibições 711.753
Tom: B
Intro: B  F#  C#m  E

E|--------------------------------------------------
B|--------------------------------------------------
G|--------------------------------------------------
D|--------------------------------------------------
A|4h6-6-4-4-6-6-6-6\4-4p2-2h4--6-7-6-7-6-7-6-7-6-7--
E|--------------------------------------------------

E|--------------------------------------------------
B|---------------------12---------------------------
G|----------9-11-9-7/8------------------------------
D|--------9-----------------------------------------
A|7-9/11--------------------------------------------
E|--------------------------------------------------

 B                          F#
Peguei no seu cabelo, você disse "fiquei louca"
 C#m                       E
Falei no ouvidinho vou beijar na sua boca
 B                             F#
Você piscou pra mim dizendo estou acompanhada
     C#m                      E
E o cara do seu lado olhando sem entender nada
C#m                        E
Era ele virar e você me olhar pra gente combinar
B                                  F#
O sinal disfarçado com jeito safado e gostoso de me olhar

B                     F#
 Vai no banheiro pra gente se beijar
 C#m                         E
Bem la no escurinho pra ninguém desconfiar
B                    F#
 Cara de santa, mas não me engana não
   C#m                     E
É hoje q eu te pego, você não me escapa não (2x)

B                 F#
 Se eu te pego an, Se eu te beijo an
C#m                     E
  Se eu te pego an, an, an, an, an, an

(Repete tudo)
Acordes para:
    Colaboração e revisão:
    • LUCAS CLEMENTE

    0 comentários

      mostrar mais comentários

      Conseguiu tocar?

      122tocaram0ainda não

      Grave um vídeo tocando Sinal Disfarçado (part. Israel Novaes) e mande pra gente!

      00:00 / 00:00
      outros vídeos desta música
      repetirqualidadeautomática
      Outro vídeos desta música
        00:00 / 00:00
        automática
        Capítulos
        • Início
        • Tocando a música
        • Acordes da música
        • Ensinando Ritmo da música
        • Ensinando Solo
        • Encerramento
        OK