Cifra Club

Turbinada

Zé Ricardo e Thiago

Cifra: Principal
exibições 219.682
Tom: C
Intro: C G Dm F

E|--------------0---1-0---------------------0---1-0-----------|
B|-1-1-1-1-1--3---3-----3-1-1--1-1-1-1-1--3---3-----3-1-------|
G|--0-0-0-0---------------------0-0-0-0-----------------------|
D|------------------------------------------------------------|
A|------------------------------------------------------------|
E|------------------------------------------------------------|

        C        G            Dm          F                  C
E|----------------------------------------------------------8-----------------|
B|--------------5----5p6------------5p6----------6------8---------------------|
G|-5--5--5--5/7---7------7-5-7-5--------7-55---5----3/7---7-------------------|
D|--55-55------------------------7-----------7--------------------------------|
A|----------------------------------------------------------------------------|
E|----------------------------------------------------------------------------|

C                              G                      Dm
À noite bombando ela chega arrasando, não vai prestar
                           F                         C
Eu chamei meu amigo e disse pra ele, essa que eu vou pegar
                                      G
Quando eu vi eu já tava puxando seu braço
                    F - G - Am
e tome, e tome, amasso.
      B-C-D
Meu Deus do céu!

Refrão 2x:
C
Nossa! Eu acho ela top
G
Nossa! Eu acho ela boa demais
Dm
Tá doida, é a mais gostosa
F
Turbinada na frente e atrás

C
Ahhhh...
              G
Se eu pegar você, e hum!
             Dm
Vai me prometer o hum hum!
                 F
Que vai ser só minha.
C                G
Mas eu vou te dizer hum hum!
             Dm
Não quero saber de hum!
            F
Chega de gracinha. (2x)
Acordes para:

    0 comentários

      mostrar mais comentários

      Conseguiu tocar?

      33tocaram1ainda não

      Grave um vídeo tocando Turbinada e mande pra gente!

      00:00 / 00:00
      outros vídeos desta música
      repetirqualidadeautomática
      Outro vídeos desta música
        00:00 / 00:00
        automática
        OK