Cifra Club

Adivinha Aí

Zé Vaqueiro

Cifra: Principal (violão e guitarra)
Selo Cifra Club: esta cifra foi revisada para atender aos critérios oficiais da nossa Equipe de Qualidade.
tom: C
[Intro] C  Am7  Em  D

[Tab - Intro]

Parte 1 De 2
E|--------------------------------------8---|
B|----5-5-7-5-7-7/8-----------5-7-8---------|
G|-------------------5--5-----------------5-|
D|------------------------------------------|
A|------------------------------------------|
E|------------------------------------------|

Parte 2 De 2
E|------------------------------------------|
B|-------------3------------------3---------|
G|------5---5-----4--------4---4-----2------|
D|------------------------------------------|
A|------------------------------------------|
E|------------------------------------------|

[Primeira Parte]

       C
Virtualmente
        Am7
Já não existe nós
       Em
Pessoalmente
             D
A gente faz amor embaixo dos lençóis

[Pré-Refrão]

              C
Quem vê seus stories
                                     Am7
Não sabe o que acontece quando tá em off
                            Em
Pra ficar comigo larga o camarote

Atrás do meu love
             D
Atrás do meu love

[Refrão]

                C
Tô bloqueado em tudo
                                Am7
Por onde ela passa queima o meu nome
             Em
Mas adivinha aí onde ela dormiu ontem
         D
Adivinha aí onde ela dormiu ontem

                C
Tô bloqueado em tudo
                                Am7
Por onde ela passa queima o meu nome
             Em
Mas adivinha aí onde ela dormiu ontem
         D
Adivinha aí onde ela dormiu ontem

[Solo] C  Am7  Em  D

[Tab - Solo]

E|------------------------------------------|
B|--5-5-7-5-7-7/8--------5-5-7-5-7-7/8------|
G|-----------------5--5-----------------5--5|
D|------------------------------------------|
A|------------------------------------------|
E|------------------------------------------|

E|------------------------------------------|
B|-------------3------------------3---------|
G|------5---5-----4--------4---4-----2------|
D|------------------------------------------|
A|------------------------------------------|
E|------------------------------------------|

[Pré-Refrão]

              C
Quem vê seus stories
                                     Am7
Não sabe o que acontece quando tá em off
                            Em
Pra ficar comigo larga o camarote

Atrás do meu love
             D
Atrás do meu love

[Refrão]

                C
Tô bloqueado em tudo
                                Am7
Por onde ela passa queima o meu nome
             Em
Mas adivinha aí onde ela dormiu ontem
         D
Adivinha aí onde ela dormiu ontem

                C
Tô bloqueado em tudo
                                Am7
Por onde ela passa queima o meu nome
             Em
Mas adivinha aí onde ela dormiu ontem
         D
Adivinha aí onde ela dormiu ontem

                C
Tô bloqueado em tudo
                                Am7
Por onde ela passa queima o meu nome
             Em
Mas adivinha aí onde ela dormiu ontem
         D
Adivinha aí onde ela dormiu ontem
Outros vídeos desta música
3.765 exibições
    • ½ Tom
    • A
    • Bb
    • B
    • C
    • Db
    • D
    • Eb
    • E
    • F
    • F#
    • G
    • Ab
  • Adicionar à lista

Afinação da cifra

Afinador online

    0 comentários

    Ver todos os comentários

    Entre para o Cifra Club PRO

    Tenha acesso a benefícios exclusivos no App e no Site

    • Chega de anúncios

    • Mais recursos no app do Afinador

    • Atendimento Prioritário

    • Aumente seu limite de lista

    • Ajude a produzir mais conteúdo

    Cifra Club Pro

    Aproveite o Cifra Club com benefícios exclusivos e sem anúncios
    Cifra Club Pro
    Aproveite o Cifra Club com benefícios exclusivos e sem anúncios
    OK