Notificações Amigos pendentes

      Zebrahead

      In My Room

      282 exibições
      Tom: D
      Tabbed by Justin, BBlink1822U@*.
        
      
      g------------------------4---
      d-44-22--44-22--44-22-22-4-(8x)
      a-44-22--44-22--44-22-22-2---
      E-22-00--22-00--22-00-00-----
      
      
      while Justin is singing u just let this ring g-4-  
      
                                                   d-4-
                                                   a-2-
                                                   E---
      
      
      then u play this palm muted
      
      pre chorus
      
      g----------------44444444-
      d-4444-2222------44444444-  (2x)
      a-4444-2222-(3x)-22222222-
      E-2222-0000---------------
      
      
      chorus
      
      e------------------------------------5~~--
      b-----------------------------------------
      g------4---------6---------4--------------
      d-4----4----4----6----4----4----4---------
      a-4----2----4----4----4----2----4(play this chord   
      E-2---------2---------2---------2 8 times) 
      
       
      :: Ultimate Guitar Archive :: 
      http://* 
      
      

      Comentários 0

      140 .
      140 cancelar

      conseguiu tocar?

      covers

      Grave um vídeo tocando In My Room e mande pra gente!

      Ex.: http://www.youtube.com/watch?v=0IvSvIwGdwk
      ver covers de outras músicas »
      0:00 / 0:00

      Capítulos

        1 versão de violão dificuldade exibições contribuição e correção
        1 versão de guitarra dificuldade exibições contribuição e correção
        1 versão de cavaco dificuldade exibições contribuição e correção
        1 versão de teclado dificuldade exibições contribuição e correção
        1 versão de baixo exibições contribuição e correção
        play/pausefechar subir/descer velocidade
        6ª corda E5ª corda A4ª corda D3ª corda G2ª corda B1ª corda E
          acordes
          publicidade
          fechar
          ok