Cifra Club

Price Tag

Zeca Baleiro

Cifra: Principal (violão e guitarra)
Selo Cifra Club: esta cifra foi revisada para atender aos critérios oficiais da nossa Equipe de Qualidade.
tom: F
Intro:  F Am Dm Bb

F Am Dm Bb (2x)

E|---------------------------------------------------------------------------|
B|------------------------------------------------------11-13-10-------------|
G|-10-10-10-10-12/14--10-10-10-10-12/14--10-10-10-10-10----------10-10/12\10-|
D|---------------------------------------------------------------------------|
A|---------------------------------------------------------------------------|
E|---------------------------------------------------------------------------|

E|------------------------------------------------------------------------------|
B|--------------------------------13\10-----------------11-10----------------10-|
G|-10-10-10-10-12/14--10-10-10-10--------10-10-10-10-10-------10----------10----|
D|---------------------------------------------------------------10-10h12-------|
A|------------------------------------------------------------------------------|
E|------------------------------------------------------------------------------|


F                               Am
 Seems like everybody's got a price
                            Dm
I wonder how they sleep at night
When the sale comes first
          Bb
And the truth comes second
Just stop for a minute and
F
 Smile

                     Am
Why is everybody so serious
                   Dm
Acting so damn mysterious
You got your shades on your eyes
          Bb
And your heels so high
That you can't even have a good
F
 Time

(ponte)
                         Am
Everybody look to their left
                         Dm
Everybody look to their right
Can you feel that, yeah
       Bb
We'll pay them with love tonight

(refrão)
                    F
It's not about the money, money, money
                    Am
We don't need your money, money, money
                        Dm
We just wanna make the world dance
                   Bb
Forget about the price tag

              F
Ain't about the (ha!) cha-ching cha-ching
             Am
Aint about the (yeah!) ba-bling ba-bling
                Dm
Wanna make the world dance
                   Bb
Forget about the price tag

F                            Am
 We need to take it back in time
                         Dm
When music made us all unite
                             Bb
And it wasn't low blows and video hoes
                            F
Am I the only one getting... tired?

                    Am
Why is everybody so obsessed?
                    Dm
Money can't buy us happiness
                           Bb
If we all slow down and enjoy right now
Guarantee we'll be feelin'
   F
All right

(ponte)
                         Am
Everybody look to their left
                         Dm
Everybody look to their right
Can you feel that, yeah
       Bb
We'll pay them with love tonight

(refrão)
                    F
It's not about the money, money, money
                    Am
We don't need your money, money, money
                        Dm
We just wanna make the world dance
                   Bb
Forget about the price tag

              F
Ain't about the (ha!) cha-ching cha-ching
             Am
Aint about the (yeah!) ba-bling ba-bling
                Dm
Wanna make the world dance
                   Bb
Forget about the price tag

(base - 2x)
F Am Dm Bb

(solo)

(refrão - 2x)
                    F
It's not about the money, money, money
                    Am
We don't need your money, money, money
                        Dm
We just wanna make the world dance
                   Bb
Forget about the price tag

              F
Ain't about the (ha!) cha-ching cha-ching
             Am
Aint about the (yeah!) ba-bling ba-bling
                Dm
Wanna make the world dance
                   Bb
Forget about the price tag

F Am Dm Bb

E|------------------------------------------------------------------|
B|------------------------------------------------------11-10-------|
G|-10-10-10-10-12/14--10-10-10-10-12/14--10-10-10-10-10-------10b11-|
D|------------------------------------------------------------------|
A|------------------------------------------------------------------|
E|------------------------------------------------------------------|

F

E|--------------------|
B|--------------------|
G|-10101010--10101010-|   (na casa 10, alternar rapidamente: ↓↑↓↑  ↓↑↓↑)
D|--------------------|
A|--------------------|
E|--------------------|
Outros vídeos desta música
    109.795 exibições
      • ½ Tom
      • A
      • Bb
      • B
      • C
      • Db
      • D
      • Eb
      • E
      • F
      • F#
      • G
      • Ab
    • Adicionar à lista

    Afinação da cifra

    Afinador online

      0 comentários

      Ver todos os comentários

      Entre para o Cifra Club PRO

      Tenha acesso a benefícios exclusivos no App e no Site

      • Chega de anúncios

      • Badges exclusivas

      • Mais recursos no app do Afinador

      • Atendimento Prioritário

      • Aumente seu limite de lista

      • Ajude a produzir mais conteúdo

      Cifra Club Pro

      Aproveite o Cifra Club com benefícios exclusivos e sem anúncios
      Cifra Club Pro
      Aproveite o Cifra Club com benefícios exclusivos e sem anúncios
      OK