Cifra Club

Four Swords - Sword Formation Training

Zelda

Cifra: Principal (violão e guitarra)
Selo Cifra Club: esta cifra foi revisada para atender aos critérios oficiais da nossa Equipe de Qualidade.
tom: F#
(violão 1)
|-------13-------11--------|--13-------11-------------|
|----13-------11-------13--|--------11---------13-----|
|-10-------10-------10-----|-----10-------------------|
|--------------------------|--------------------------|
|--------------------------|--------------------------|
|--------------------------|--------------------------|

|-------13-------11--------|--13-------11-------------|
|----13-------11-------13--|--------11---------13-----|
|-10-------10-------10-----|-----10-------------------|
|--------------------------|--------------------------|
|--------------------------|--------------------------|
|--------------------------|--------------------------|

|--------10-------8--------|--10-------8-------6------|
|-----9--------7--------9--|--------7-----------------|
|--9--------7--------9-----|-----7--------------------|
|--------------------------|--------------------------|
|--------------------------|--------------------------|
|--------------------------|--------------------------|

|--------10-------8--------|--10-------8-------6------|
|-----9--------7--------9--|--------7-----------------|
|--9--------7--------9-----|-----7--------------------|
|--------------------------|--------------------------|
|--------------------------|--------------------------|
|--------------------------|--------------------------|

|--8--6--8--6-----------8--|-----6--8--6--------------|
|--------------7--5--------|--------------7--5--------|
|--------------------------|--------------------------|
|--------------------------|--------------------------|
|--------------------------|--------------------------|
|--------------------------|--------------------------|

|--6--4--6--4-----------6--|-----4--6--4--------------|
|--------------5--3--------|--------------5--3--------|
|--------------------------|--------------------------|
|--------------------------|--------------------------|
|--------------------------|--------------------------|
|--------------------------|--------------------------|

|--8--6--8--6-----------8--|-----6--8--6--------------|
|--------------7--5--------|--------------7--5--------|
|--------------------------|--------------------------|
|--------------------------|--------------------------|
|--------------------------|--------------------------|
|--------------------------|--------------------------|

|--6--4--6--4-----------6--|-----4--6--4--------------|
|--------------5--3--------|--------------5--3--------|
|--------------------------|--------------------------|
|--------------------------|--------------------------|
|--------------------------|--------------------------|
|--------------------------|--------------------------|

(violão 2)
|--------------------------|--------------------------|
|--------------------------|--------------------------|
|--------------------------|--------------------------|
|-----6-----6-----4-----4--|-----6-----6-----4-----4--|
|-----6-----6-----4-----4--|-----6-----6-----4-----4--|
|--4-----4-----2-----2-----|--4-----4-----2-----2-----|

|--------------------------|--------------------------|
|--------------------------|--------------------------|
|--------------------------|--------------------------|
|-----6-----6-----4-----4--|-----6-----6-----4-----4--|
|-----6-----6-----4-----4--|-----6-----6-----4-----4--|
|--4-----4-----2-----2-----|--4-----4-----2-----2-----|

|--------------------------|--------------------------|
|--------------------------|--------------------------|
|-----------------7-----7--|-----------------7-----7--|
|-----2-----2-----7-----7--|-----2-----2-----7-----7--|
|-----2-----2--5-----5-----|-----2-----2--5-----5-----|
|--0-----0-----------------|--0-----0-----------------|

|--------------------------|--------------------------|
|--------------------------|--------------------------|
|-----------------7-----7--|-----------------7-----7--|
|-----2-----2-----7-----7--|-----2-----2-----7-----7--|
|-----2-----2--5-----5-----|-----2-----2--5-----5-----|
|--0-----0-----------------|--0-----0-----------------|

|--------------------------|--------------------------|
|--------------------------|--------------------------|
|--------------------------|--------------------------|
|--6-----6-----4--------6--|--------6-----4-----------|
|--6-----6-----4--------6--|--------6-----4-----------|
|--4-----4-----2--------4--|--------4-----2-----------|

|--------------------------|--------------------------|
|--------------------------|--------------------------|
|--------------7-----------|--------------7-----------|
|--2-----2-----7--------2--|--------2-----7-----------|
|--2-----2-----5--------2--|--------2-----5-----------|
|--0-----0--------------0--|--------0-----------------|

|--------------------------|--------------------------|
|--------------------------|--------------------------|
|--------------------------|--------------------------|
|--6-----6-----4--------6--|--------6-----4-----------|
|--6-----6-----4--------6--|--------6-----4-----------|
|--4-----4-----2--------4--|--------4-----2-----------|

|--------------------------|--------------------------|
|--------------------------|--------------------------|
|--------------7-----------|--------------7-----------|
|--2-----2-----7--------2--|--------2-----7-----------|
|--2-----2-----5--------2--|--------2-----5-----------|
|--0-----0--------------0--|--------0-----------------|
00:00 / 00:00
Outros vídeos desta música
Repetir
Outros vídeos desta música
1.448 exibições
    • ½ Tom
    • A
    • Bb
    • B
    • C
    • Db
    • D
    • Eb
    • E
    • F
    • F#
    • G
    • Ab
  • Adicionar à lista

Afinação da cifra

Afinador online

    0 comentários

    Ver todos os comentários

    Entre para o Cifra Club PRO

    Tenha acesso a benefícios exclusivos no App e no Site

    • Chega de anúncios

    • Mais recursos no app do Afinador

    • Atendimento Prioritário

    • Aumente seu limite de lista

    • Ajude a produzir mais conteúdo

    00:00 / 00:00

    Cifra Club Pro

    Aproveite o Cifra Club com benefícios exclusivos e sem anúncios
    Cifra Club Pro
    Aproveite o Cifra Club com benefícios exclusivos e sem anúncios
    OK