Cifra Club

Gerudo Valley

Zelda

Cifra: Principal (violão e guitarra)
Selo Cifra Club: esta cifra foi revisada para atender aos critérios oficiais da nossa Equipe de Qualidade.
tom: A
     Intro.                  F#m                    D
|-----------5---4-7-9||-2-2-2-2-2-2-2-2-2-2||-2-2-2-2-2-2-2-2-2-2|
|---------7---6------||-2-2-2-2-2-2-2-2-2-2||-3-3-3-3-3-3-3-3-3-3|
|-----4-7------------||-2-2-2-2-2-2-2-2-2-2||-2-2-2-2-2-2-2-2-2-2|
|---6----------------||-4-4-4-4-4-4-4-4-4-4||-0-0-0-0-0-0-0-0-0-0|
|-4------------------||--------------------||--------------------|
|--------------------||--------------------||--------------------|

        E                     C#/F
|-0-0-0-0-0-0-0-0-0-0||-1-1-1-1-1-1-1-1-1-1||---2-4-5-----2-4-5-|
|-0-0-0-0-0-0-0-0-0-0||-2-2-2-2-2-2-2-2-2-2||-2---------2-------|
|-1-1-1-1-1-1-1-1-1-1||-1-1-1-1-1-1-1-1-1-1||-------------------|
|-2-2-2-2-2-2-2-2-2-2||-3-3-3-3-3-3-3-3-3-3||-------------------|
|--------------------||--------------------||-------------------|
|--------------------||--------------------||-------------------|

|---2-4-5-----2-4-5-||---0-2-4-----0-2-4-||-2-4-2-1-|
|-3---------3-------||-0---------0-------||---------|
|-------------------||-------------------||---------|
|-------------------||-------------------||---------|
|-------------------||-------------------||---------|
|-------------------||-------------------||---------|

|---2-4-5-----2-4-5-||---2-4-5-----2-4-5-||---0-2-4-----0-2-4-|
|-2---------2-------||-3---------3-------||-0---------0-------|
|-------------------||-------------------||-------------------|
|-------------------||-------------------||-------------------|
|-------------------||-------------------||-------------------|
|-------------------||-------------------||-------------------|

|-5-7-5-4-||---5-4-2-||-----0h2p0---||---4-2-0-||-------------|
|---------||-2-------||-2-5-------3-||-0-------||-3-2-3h5p3-2-|
|---------||---------||-------------||---------||-------------|
|---------||---------||-------------||---------||-------------|
|---------||---------||-------------||---------||-------------|
|---------||---------||-------------||---------||-------------|

|---5-4-2-||-----0h2p0---||---------||--------||-5-4-5--4-|
|-2-------||-2-5-------3-||-----7-5-||-3-2----||----------|
|---------||-------------||-2-4-4-4-||-1-1----||----------|
|---------||-------------||---------||--------||----------|
|---------||-------------||---------||--------||----------|
|---------||-------------||---------||--------||----------|

|------------||-4-2-4-0-||-------------||-----------------|
|-2-5--3-2-3-||---------||-3-2-3-5-3-2-||-------2-------2-|
|------------||---------||-------------||---1-2-----1-2---|
|------------||---------||-------------||-4-------4-------|
|------------||---------||-------------||-----------------|
|------------||---------||-------------||-----------------|

|-----------------||-----4-2-----||-----------------7-|
|-------3-------3-||-3---5-3-0-2-||-10-9-10--7-9-10---|
|---1-2-----1-2---||-2-4-----1-1-||-------------------|
|-4-------4-------||-------------||-------------------|
|-----------------||-------------||-------------------|
|-----------------||-------------||-------------------|

|-------------------||-----------------||---------|
|-10-9-10-9-10--9-7-||-9----7-9-10-9-7-||-9-7-----|
|-------------------||----9------------||-----10--|
|-------------------||-----------------||---------|
|-------------------||-----------------||---------|
|-------------------||-----------------||---------|

|-----------------7-||--------------||------------------||-9-10-12-9-10-9-|
|-10-9-10--7-9-10---||-10-9-10-9-10-||-12-10-12-9-10-12-||----------------|
|-------------------||--------------||------------------||----------------|
|-------------------||--------------||------------------||----------------|
|-------------------||--------------||------------------||----------------|
|-------------------||--------------||------------------||----------------|

|---------||---------||---------||---------||---------||---------||---------|
|---------||---------||---------||---------||---------||---------||-3h5p3-2-|
|---2-1-2-||---2-1-2-||---2-1-2-||---2-1-2-||---4-3-4-||---4-3-4-||---------|
|-4-------||-4-------||-0-------||-0-------||-2-------||-2-------||---------|
|---------||---------||---------||---------||---------||---------||---------|
|---------||---------||---------||---------||---------||---------||---------|
00:00 / 00:00
Outros vídeos desta música
Repetir
Outros vídeos desta música
113.503 exibições
    • ½ Tom
    • A
    • Bb
    • B
    • C
    • Db
    • D
    • Eb
    • E
    • F
    • F#
    • G
    • Ab
  • Adicionar à lista

Afinação da cifra

Afinador online

    0 comentários

    Ver todos os comentários

    Entre para o Cifra Club PRO

    Tenha acesso a benefícios exclusivos no App e no Site

    • Chega de anúncios

    • Mais recursos no app do Afinador

    • Atendimento Prioritário

    • Aumente seu limite de lista

    • Ajude a produzir mais conteúdo

    00:00 / 00:00

    Cifra Club Pro

    Aproveite o Cifra Club com benefícios exclusivos e sem anúncios
    Cifra Club Pro
    Aproveite o Cifra Club com benefícios exclusivos e sem anúncios
    OK