Cifra Club

Majora's Mask - Clock Town

Zelda

Cifra: Principal (violão e guitarra)
Selo Cifra Club: esta cifra foi revisada para atender aos critérios oficiais da nossa Equipe de Qualidade.
tom: C
E |-----------------------|----------------------|
B |-----------------------|----------------------|
G |-----------------------|----------------------|
D |-----------------------|----------------------|
A |-----------------------|----------------------|
E |---10--------9----9----|--7--------9----9-----|

|--------10--9--7------7---------|-----------------------------------|
|------------------10-------8----|--10-------10--8-----8----10--7----|
|---7----------------------------|--------9---------9----------------|
|--------------------------------|-----------------------------------|
|--------------------------------|-----------------------------------|
|--10------------------9----9----|---7-----------------9--------9----|

|--------10--9--7------7---------|------------------------------|
|------------------10-------8----|--10--8-----8----7------------|
|---7----------------------------|---------9-----------7--------|
|--------------------------------|------------------------------|
|--------------------------------|------------------------------|
|--10------------------9----9----|---7--------9-------10--------|

|--------10--9--7------7---------|-----------------------------------|
|------------------10-------8----|--10-------10--8-----8----10--7----|
|---7----------------------------|--------9---------9----------------|
|--------------------------------|-----------------------------------|
|--------------------------------|-----------------------------------|
|--10------------------9----9----|---7-----------------9--------9----|

|--------10--9--7------7---------|--------------------------------|
|------------------10-------8----|--10--8-----8--10--7------------|
|---7----------------------------|---------9-------------7--------|
|--------------------------------|--------------------------------|
|--------------------------------|--------------------------------|
|--10------------------9----9----|---7--------9---------10--------|

|-------------------0---------|--3--2--3--2-------0---------|
|--3----3--3--2--3------------|----------------3------------|
|------------------------2----|------------------------2----|
|--0--------------------------|-----------------------------|
|-------------------4----4----|--2----------------4----4----|
|-----------------------------|-----------------------------|

|-------------------0------------|--3--2--3--2----------------|
|--3----3--3--2--3-------2-------|----------------2--3--------|
|---------------------------2----|----------------------------|
|--0-----------------------------|-------------------0--------|
|-------------------4-------4----|--2--------4----------------|
|--------------------------------|----------------------------|

|-------------------0---------|--3--2--3--2-------0------------|
|--3----3--3--2--3------------|----------------3-------2-------|
|------------------------2----|---------------------------2----|
|--0--------------------------|--------------------------------|
|-------------------4----4----|--2----------------4-------4----|
|-----------------------------|--------------------------------|

|-------------------0---------|--3--2--3--2----------------|
|--3----3--3--2--3------------|----------------2--3--------|
|------------------------2----|----------------------------|
|-----------------------------|----------------------------|
|--5----------------4----4----|--2--------4-------5--------|
|-----------------------------|----------------------------|

|--7--------5---------|---------------------|--7--------5---------|
|---------------------|--8--------7---------|----------------8----|
|--7--------6---------|---------------------|--7--------6---------|
|---------------------|--9--------7---------|----------------9----|
|---------------------|---------------------|---------------------|
|---------------------|---------------------|---------------------|

|--------------------|--7--------5---------|--10--------9---------|
|--7--------5--------|---------------------|----------------------|
|--------------------|--7--------6---------|--11--------9---------|
|--7--------5--------|---------------------|----------------------|
|--------------------|---------------------|----------------------|
|--------------------|---------------------|----------------------|

|--9--------8--------|--7----------------|
|--------------------|-------------------|
|--9--------8--------|--7----------------|
|--------------------|-------------------|
|--------------------|-------------------|
|--------------------|-------------------|

00:00 / 00:00
Outros vídeos desta música
Repetir
Outros vídeos desta música
5.161 exibições
    • ½ Tom
    • A
    • Bb
    • B
    • C
    • Db
    • D
    • Eb
    • E
    • F
    • F#
    • G
    • Ab
  • Adicionar à lista

Afinação da cifra

Afinador online

    0 comentários

    Ver todos os comentários

    Entre para o Cifra Club PRO

    Tenha acesso a benefícios exclusivos no App e no Site

    • Chega de anúncios

    • Mais recursos no app do Afinador

    • Atendimento Prioritário

    • Aumente seu limite de lista

    • Ajude a produzir mais conteúdo

    00:00 / 00:00

    Cifra Club Pro

    Aproveite o Cifra Club com benefícios exclusivos e sem anúncios
    Cifra Club Pro
    Aproveite o Cifra Club com benefícios exclusivos e sem anúncios
    OK