Cifra Club

Majora's Mask - Goron´s Lullaby

Zelda

Cifra: Principal (violão e guitarra)
Selo Cifra Club: esta cifra foi revisada para atender aos critérios oficiais da nossa Equipe de Qualidade.
tom: C
Versão 1:

E |-------------------------------|
B |-------0---------0-------------|
G |----2---------2--------2-------|
D |-2---------2-------------2-----|
A |-------------------------------|
E |-------------------------------|  x2

E |------------------------------------|
B |-------10---------10----------------|
G |----12---------12--------12---------|
D |-12---------12-------------12-------|
A |------------------------------------|
E |------------------------------------|  x2

Versão 2:

Essa é a melodia principal:

                               |let ring  |
E |----------------------------------------|
B |----------------------------------------|
G |------14--16------14--16--14------------|
D |----12---------12-------------12--------|
A |----------------------------------------|
E |----------------------------------------|  x2

                      |let ring|
E |-----------------------------|
B |-----------------------------|
G |---------12~-----------------|
D |---15~~-----14~--15--12------|
A |-----------------------------|
E |-----------------------------|
Outros vídeos desta música
1.835 exibições
    • ½ Tom
    • A
    • Bb
    • B
    • C
    • Db
    • D
    • Eb
    • E
    • F
    • F#
    • G
    • Ab
  • Adicionar à lista

Afinação da cifra

Afinador online

    0 comentários

    Ver todos os comentários

    Entre para o Cifra Club PRO

    Tenha acesso a benefícios exclusivos no App e no Site

    • Chega de anúncios

    • Mais recursos no app do Afinador

    • Atendimento Prioritário

    • Aumente seu limite de lista

    • Ajude a produzir mais conteúdo

    Cifra Club Pro

    Aproveite o Cifra Club com benefícios exclusivos e sem anúncios
    Cifra Club Pro
    Aproveite o Cifra Club com benefícios exclusivos e sem anúncios
    OK