Cifra Club

Title Screen

Zelda

Cifra: Principal (violão e guitarra)
Selo Cifra Club: esta cifra foi revisada para atender aos critérios oficiais da nossa Equipe de Qualidade.
tom: Bb
[Intro]  G  Bb  Eb  D

E|------------------------------------------------|
B|------------------------------------------------|  
G|-12---------12--10p9h10--12----------11p10h11---|
D|-----12-12--------------------12-12-------------|
A|------------------------------------------------|
E|------------------------------------------------|

    G                          Gm
E|----------------------------------|
B|----------------------------15~~--|  
G|-12----------12-12h14p15h17-------|
D|-----12~--------------------------|
A|----------------------------------|
E|----------------------------------|

               Eb            A#                  Cm
E|------------15---13-11-11h13p11s10---10-10-10-8-8-10-11--|
B|-------15------------------------------------------------|
G|-12------------------------------------------------------|
D|---------------------------------------------------------|
A|---------------------------------------------------------|
E|---------------------------------------------------------|

          A#                 A                D
E|-11-10-8-6-6-8-10--10-8-6-5---5-5-5-5--5-5-10-|
B|----------------------------------------------|
G|----------------------------------------------|
D|----------------------------------------------|
A|----------------------------------------------|
E|----------------------------------------------|
Outros vídeos desta música
1.066 exibições
    • ½ Tom
    • A
    • Bb
    • B
    • C
    • Db
    • D
    • Eb
    • E
    • F
    • F#
    • G
    • Ab
  • Adicionar à lista

Afinação da cifra

Afinador online

    0 comentários

    Ver todos os comentários

    Entre para o Cifra Club PRO

    Tenha acesso a benefícios exclusivos no App e no Site

    • Chega de anúncios

    • Mais recursos no app do Afinador

    • Atendimento Prioritário

    • Aumente seu limite de lista

    • Ajude a produzir mais conteúdo

    Cifra Club Pro

    Aproveite o Cifra Club com benefícios exclusivos e sem anúncios
    Cifra Club Pro
    Aproveite o Cifra Club com benefícios exclusivos e sem anúncios
    OK