Cifra Club

Milanesi Al Mare

Zen Circus

Cifra: Principal (violão e guitarra)
Selo Cifra Club: esta cifra foi revisada para atender aos critérios oficiais da nossa Equipe de Qualidade.
tom: A
(x3)
E|-----------------------------7--------------9------------------------------|
B|--------------------------7-----7--------9-----9---------------------------|
G|-----6--7--6---------------------------------------------------------------|
D|--7-----------7--5--7/9------------9/11------------------------------------|
A|---------------------------------------------------------------------------|
E|---------------------------------------------------------------------------|

E|---------------------------------------------------------------------------|
B|---------------------------------------------------------------------------|
G|-----6--7--6-------------7----------9--------------------------------------|
D|--7-----------7--5--7/9-----9-9/11-----------------------------------------|
A|---------------------------------------------------------------------------|
E|---------------------------------------------------------------------------|


[Verse 1]

(x3)
E|---------------------------------------------------------------------------|
B|---------------------------------------------------------------------------|
G|--6-6-7-6--------7-----------9---------------------------------------------|
D|--7-7-7-7--7/9-9---9-9/11-11-----------------------------------------------|
A|---------------------------------------------------------------------------|
E|---------------------------------------------------------------------------|

(twice before the chorus)
E|---------------------------------------------------------------------------|
B|---------------------------------------------------------------------------|
G|--9-x-9-9-9-x-6-6-x-7-7-7--------------------------------------------------|
D|--9-x-9-9-9-x-6-6-x-7-7-7--------------------------------------------------|
A|--7-x-7-7-7-x-4-4-x-5-5-5--------------------------------------------------|
E|---------------------------------------------------------------------------|

Metanopoli è Saint-Tropez
                            
Brera come la costa Smeralda
                      
Portofino a Milano tre
               
Gente che balla

                           
Alla scala tutti in pedalò
                                    
In Piazza Affari prendi l'ombrellone
                        
Sandali, Ray-ban e parei
                    
Voglio lei, solo lei

                             
(before chorus only)

[Bridge]

E|--9--7---------------------------------------------------------------------|
B|--------10--9--7-----------------------------------------------------------|
G|------------------6--7--9--------------------------------------------------|
D|---------------------------7--9--------------------------------------------|
A|---------------------------------------------------------------------------|
E|---------------------------------------------------------------------------|

[Chorus] 

(repeat) 

E|--0-0--0-0--2-2--2-2-------------------------------------------------------|
B|--2-2--0-0--2-2--3-3-------------------------------------------------------|
G|--2-2--1-1--2-2--2-2-------------------------------------------------------|
D|--2-2--2-2--4-4--0-0-------------------------------------------------------|
A|--0-2--2-2--4-4------------------------------------------------------------|
E|-------0-0--2-2------------------------------------------------------------|


A  E 

F#m        D         A  E
 Siamo milanesi al mare
F#m        D         A  E                          
 Tutti milanesi al mare che
F#m        D         A  E      Fbm      D                              
 Come milanesi al mare che ora basta lavorare
A  E
F#m       D         A  E                       
 Tutti sotto questo sole
F#m        D         A  E                      
 Il sole del lavoratore
F#m        D         A  E      Fbm      D     
 Come milanesi al mare che ora basta criticare

E|---------------------------------------------------------------------------|
B|---------------------------------------------------------------------------|
G|--6-6-7-7-9-9-9-9-7-7-7-7-6-6-6-6------------------------------------------|
D|--7-7-7-7-7-7-7-7-7-7-7-7-7-7-7-7------------------------------------------|
A|---------------------------------------------------------------------------|
E|---------------------------------------------------------------------------|

E|---------------------------------------------------------------------------|
B|---------------------------------------------------------------------------|
G|--6-6-7-7-9-9-9-9-7-7-7-7-6-6-6--------------------------------------------|
D|--7-7-7-7-7-7-7-7-7-7-7-7-7-7-7(| let ring)----------------------------------|
A|---------------------------------------------------------------------------|
E|---------------------------------------------------------------------------|

[Solo]

E|---------------------------------------------------------------------------|
B|--17-15-14-14h15p14----14--------------------------------------------------|
G|--------------------16----16-14-13-----------------------------------------|
D|-----------------------------------16-14-----------------------------------|
A|---------------------------------------------------------------------------|
E|---------------------------------------------------------------------------|

E|---------------------------------------------------------------------------|
B|--17-15-14-14h15p14----14--------------------------------------------------|
G|--------------------16----16-14-13-----------------11-13-14----------------|
D|-----------------------------------16-14--11-12-14-------------------------|
A|---------------------------------------------------------------------------|
E|---------------------------------------------------------------------------|

E|----------------------------12-12-12-12(a| nd so on)-------------------------|
B|------------12-14-15-14-12-------------------------------------------------|
G|---------------------------------------------------------------------------|
D|--11-12-14-----------------------------------------------------------------|
A|---------------------------------------------------------------------------|
E|---------------------------------------------------------------------------|


Verse 2]

(x3)
E|---------------------------------------------------------------------------|
B|---------------------------------------------------------------------------|
G|--6-6-7-6--------7-----------9---------------------------------------------|
D|--7-7-7-7--7/9-9---9-9/11-11-----------------------------------------------|
A|---------------------------------------------------------------------------|
E|---------------------------------------------------------------------------|

(twice before the chorus)
E|---------------------------------------------------------------------------|
B|---------------------------------------------------------------------------|
G|--9-x-9-9-9-x-6-6-x-7-7-7--------------------------------------------------|
D|--9-x-9-9-9-x-6-6-x-7-7-7--------------------------------------------------|
A|--7-x-7-7-7-x-4-4-x-5-5-5--------------------------------------------------|
E|---------------------------------------------------------------------------|

I navigli come Sharm-El-Sheik
                                 
Con gli amici, il cane ed i figli
                           
In campeggio a porta Genova
              
Che meraviglia

                          
Fritto misto in via Padova
                                 
Falò e chitarra in metropolitana
                          
Un comodo idroscalo ligure
                  
Voglio te, solo te

(before chorus only)

[Bridge]

E|--9--7---------------------------------------------------------------------|
B|--------10--9--7-----------------------------------------------------------|
G|------------------6--7--9--------------------------------------------------|
D|---------------------------7--9--------------------------------------------|
A|---------------------------------------------------------------------------|
E|---------------------------------------------------------------------------|

[Chorus]

(repeat) 

E|--0-0--0-0--2-2--2-2-------------------------------------------------------|
B|--2-2--0-0--2-2--3-3-------------------------------------------------------|
G|--2-2--1-1--2-2--2-2-------------------------------------------------------|
D|--2-2--2-2--4-4--0-0-------------------------------------------------------|
A|--0-2--2-2--4-4------------------------------------------------------------|
E|-------0-0--2-2------------------------------------------------------------|


Siamo milanesi al mare
                          
Tutti milanesi al mare che
                     
Come milanesi al mare
                      
Che ora basta lavorare
                       
Tutti sotto questo sole
                      
Il sole del lavoratore
                     
Come milanesi al mare
                         
Che ora basta devo andare

************************************

| x   Dead note
| h   Hammer-on
| p   Pull-off
| r   Release
Outros vídeos desta música
    4 exibições
      • ½ Tom
      • A
      • Bb
      • B
      • C
      • Db
      • D
      • Eb
      • E
      • F
      • F#
      • G
      • Ab
    • Adicionar à lista

    Afinação da cifra

    Afinador online

      0 comentários

      Ver todos os comentários

      Conseguiu tocar?

      0Tocaram0Ainda não

      Grave um vídeo tocando Milanesi Al Mare e nos envie!

      Toque também

      1. Imagem do artista Tre Allegri Ragazzi MortiLa Sorella Di Mio Fratello Tre Allegri Ragazzi Morti
      2. Imagem do artista MinistriUna Palude Ministri
      3. Imagem do artista Le Luci Della Centrale ElettricaLe Ragazze Stanno Bene Le Luci Della Centrale Elettrica
      4. Imagem do artista Il Teatro Degli OrroriIo Ti Aspetto Il Teatro Degli Orrori

      Entre para o Cifra Club PRO

      Tenha acesso a benefícios exclusivos no App e no Site

      • Chega de anúncios

      • Badges exclusivas

      • Mais recursos no app do Afinador

      • Atendimento Prioritário

      • Aumente seu limite de lista

      • Ajude a produzir mais conteúdo

      Cifra Club Pro

      Aproveite o Cifra Club com benefícios exclusivos e sem anúncios
      Cifra Club Pro
      Aproveite o Cifra Club com benefícios exclusivos e sem anúncios
      Ops (: Contenido disponible sólo en portugués.
      OK