Cifra Club

Aprenda

Casa de Vidro

Zimbra

Cifra: Principal (violão e guitarra)
Tom: G
( Em D G Bm   Em D C )

E|---------------------7-5h7p5------|---------------------|
B|--7h8p7------7h8p7-----------8-7--|--7h8p7--------------|
G|--------9-7--------9--------------|--------9-7--7/9~~~--|
D|----------------------------------|---------------------|
A|----------------------------------|---------------------|
E|----------------------------------|---------------------|

Em           D         G      Bm
Talvez não fossemos iguais
Em              D         C
Ficamos tanto tempo na espera
Em       D       G      Bm
De conhecer os ideais
Em           D          C
De um mundo que não coopera.

Em           D        G     Bm
Talvez nós fossemos depois
Em        D               C
O que pensávamos ''quem dera''
Em        D       G          Bm           Em
Que viveríamos à dois, como não se pensa mais
        D          G     Bm
Dois oceanos de espera

C
E quando alguém te perguntou
                   G
Do que você sabia mais
          Bm
Você se recusou a responder
C
Guardou a chave que explicou
                      G
Aquelas outras vezes mas
          Bm        C
Não conseguiu entender
                     D                    Em
E agora tudo que ficou, foi simplesmente nada.

( Em D G Bm   Em D C )

E|---------------------7-5h7p5------|---------------------|
B|--7h8p7------7h8p7-----------8-7--|--7h8p7--------------|
G|--------9-7--------9--------------|--------9-7--7/9~~~--|
D|----------------------------------|---------------------|
A|----------------------------------|---------------------|
E|----------------------------------|---------------------|

Em           D         G      Bm
Talvez não fossemos reais
Em              D         C
Ficamos tanto tempo na espera
Em        D          G    Bm
E já nem conhecemos mais
Em           D          C
De um mundo que não coopera.

Em           D        G     Bm
Talvez nós fossemos depois
Em        D               C
O que pensávamos ''quem dera''
Em        D       G          Bm           Em
Que viveríamos à dois, como não se pensa mais
        D          G     Bm
Dois oceanos de espera

C
E quando alguém te perguntou
                   G
Do que você sabia mais
         Bm
Você se recusou a responder
C
Guardou a chave que explicou
                     G
Aquelas outras vezes mas
          Bm
Não conseguiu entender
C                   D               D#º  Em
E agora tudo que ficou, foi simplesmente nada.

( Em  D  C )
( Em  D  C )

E|----------------------------|----------------------|
B|--10b12~~--12r10-8---8------|----------8-10-10b12--|
G|-------------------9---9~~--|------7-9-------------|
D|----------------------------|--7-9-----------------|
A|----------------------------|----------------------|
E|----------------------------|----------------------|

E|--10--------------|----------------|
B|----12-10-8h10p8--|--7h87----------|
G|------------------|-------9-7------|
D|------------------|-----------9~~--|
A|------------------|----------------|
E|------------------|----------------|

E|----------------------------|----------------------------|
B|--10b12~~--12r10-8---8------|--------------8-8-10-10b12--|
G|-------------------9---9~~--|--------7-7-9---------------|
D|----------------------------|--7-7-9---------------------|
A|----------------------------|----------------------------|
E|----------------------------|----------------------------|

E|--10----------------|
B|----12-10-8h10p8~~--|
G|--------------------|
D|--------------------|
A|--------------------|
E|--------------------|
Colaboração e revisão:
16.055 exibições
    • ½ Tom
    • A
    • Bb
    • B
    • C
    • Db
    • D
    • Eb
    • E
    • F
    • F#
    • G
    • Ab
  • Adicionar à lista

    0 comentários

    Mostrar mais comentários

    Conseguiu tocar?

    10 Tocaram 1 Ainda não

    Grave um vídeo tocando Casa de Vidro e mande pra gente!

    00:00 / 00:00
    outros vídeos desta música
    repetir qualidade Automático
    Outros vídeos desta música
    00:00 / 00:00
    Automático
    OK