Cifra Club

Por Nós Dois

Zimbra

Cifra: Principal (violão e guitarra)
tom: A
A  E      F#m
Não, não se vá assim
A#º
Você não sabe o tempo
                Bm          Bm/A
Que eu levei pra te encontrar
      E
Pra te ver chegar a tempo
A  C#7    F#m
 Não me deixe só
     A#º                 Bm      Bm/A
O que era nosso agora é diferente
      E
Não existe mais a gente

D7M
Tudo que eu disser
                       C#m
Talvez você já tenha escutado então
C#m Bm    Bm C#m    D7M
Me diz se eu vou voltar
                                          C#m
A ver você sorrir de novo bem no meio da escuridão
C#m Bm   Bm C#m   D7M
E o tempo vai abrir

E o céu, me dirá quem
            C#m
Foi que resolveu mudar
         Bm
Pra não te ver partir
      E
Pra te ver voltar

A            E
Me deixa pensar que é
        F#m
Por nós dois
Bm
Eu nunca soube como
       E
Te agradar

A     C#7        F#m
Me deixa seguir por onde for
                 Bm
Vai ver eu ainda consigo imaginar
            E
Todo esse chão que eu
               A
Nunca tive pra pisar

( C#7 F#m Bm E A )

E|----------------------------------------|
B|--12b14r12--12b14r12-12b14-14r12-10-----|
G|------------------------------------11--|
D|----------------------------------------|
A|----------------------------------------|
E|----------------------------------------|

E|--------------------------|--------------------|
B|-----10-9-----------------|--12b14r12--9-------|
G|----------9/11\9----------|--------------11-9--|
D|--11--------------9/11\9--|--------------------|
A|--------------------------|--------------------|
E|--------------------------|--------------------|

E|------------------------------9-12b14--|
B|-----------------9-10-9-10-12----------|
G|-------9-11-9-11-----------------------|
D|--9-11---------------------------------|
A|---------------------------------------|
E|---------------------------------------|

E|--17-14------------------|
B|--------17--12b14r12-12--|
G|-------------------------|
D|-------------------------|
A|-------------------------|
E|-------------------------|

E|---------------------------|-----------------------|
B|---------------------------|-----------------------|
G|-----11-------11-9---------|-----------------------|
D|--11----11-11------9/11\9--|--9/11-9--9b11r9-7~~~--|
A|---------------------------|-----------------------|
E|---------------------------|-----------------------|
00:00 / 00:00
Outros vídeos desta música
Repetir
Outros vídeos desta música
Composição de Rafael Costa
Colaboração e revisão:
19.609 exibições
    • ½ Tom
    • A
    • Bb
    • B
    • C
    • Db
    • D
    • Eb
    • E
    • F
    • F#
    • G
    • Ab
  • Adicionar à lista

    0 comentários

    Ver todos os comentários

    Conseguiu tocar?

    19 Tocaram 3 Ainda não

    Grave um vídeo tocando Por Nós Dois e nos envie!

    Entre para oCifra Club PRO

    Tenha acesso a benefícios exclusivos no App e no Site

    • Chega de anúncios

    • Prioridade de compra em lançamentos

    • Mais recursos no app do Afinador

    • Atendimento Prioritário

    • Descontos nos produtos Cifra Club

    • Ajude a produzir mais conteúdo

    00:00 / 00:00

    Cifra Club Pro

    Aproveite o Cifra Club com benefícios exclusivos e sem anúncios
    Cifra Club Pro
    Aproveite o Cifra Club com benefícios exclusivos e sem anúncios
    OK