Cutm

311

 311
Tom: D
		
'C.U.T.M.'
From the album "Unity" on What Have You? Records
Music by:  N. Hexum & A. Wills
Lyrics by:  N. Hexum
Tabbed by: Springer (DSPRiNGR@*)
Additions/Corrections by: Michael Slusarz (*)Intro:
======
   D7(#9)
1:------
2:-6--6-
3:-5--5-
4:-4--4-
5:-5--5-
6:------

Riff 1:
=======
   D7(#9) C7(#9)->D7(#9)            D#7(#9) D7(#9)          N.C.  

1:------------------------------------------------------------------------
2:-6-6-x-5/6-6-6-x-6-6-x-5-6-x-6-6-x-6/7-7--6-6-xx-5/6-6-6----------------
3:-5-5-x-4/5-5-5-x-5-5-x-4-5-x-5-5-x-5/6-6--5-5-xx-4/5-5-5----------------
4:-4-4-x-3/4-4-4-x-4-4-x-3-4-x-4-4-x-4/5-5--4-4-xx-3/4-4-4------3-5-b5b-5-
5:-5-5-x-4/5-5-5-x-5-5-x-4-5-x-5-5-x-5/6-6--5-5-xx-4/5-5-5--3-5-----------
6:------------------------------------------------------------------------


Bridge:
========
   D7    C#7   C7    B7    C7    C#7   D7

1:---------------------------------------
2:-3-3-3-2-2-2-1-1-1-0-0-0-1-1-1-5-5-5-6-
3:-5-5-5-4-4-4-3-3-3-2-2-2-3-3-3-4-4-4-5-
4:-4-4-4-3-3-3-2-2-2-1-1-1-2-2-2-3-3-3-4-
5:-5-5-5-4-4-4-3-3-3-2-2-2-3-3-3-4-4-4-5-
6:---------------------------------------


Solo 1:
=======
   N.C.

1:---------13----12----11----10---------------------------------
2:------15----14----13----12----13p10---------------------------
3:------------------------------------12b(14)b12p10-------10~//-
4:-b12b---------------------------------------------12-12-------
5:-b12b---------------------------------------------------------
6:-b10b---------------------------------------------------------


Solo 2:
=======
   N.C.

1:---------------------------------------------
2:-6-----------------------------------6-4-5-6-
3:---5---5-------------------5-------5---------
4:-----4---4---5-4-3-4-5---4---4-3-4-----------
5:-----------3-----------3---------------------
6:---------------------------------------------


Riff 2 (w/flanger(??) effect):
==============================
   N.C.

1:---------------------
2:---------------------
3:---------------------
4:---------------------
5:-------3-----1-------
6:-3--3-----3-----1--2-



Lyrics/Song Structure:
======================
---> Play Intro (x2)
   I've got the funk on two
   I've got the funk on two
   Pick it up (P-Nut?)
---> Play Riff 1 (x2)
---> No guitar over:
   Hexum, Sexton, Mahoney and Wills
   We groove so ***in' hard it gives you the chills
   Well I've been stricken, The bass is kickin'
   When suckers step to me, boy, I give them a lickin'
---> Play Riff 1 over:
   Cosmic Utopian Thrivin' Mission, baby
   Cosmic Utopian Thrivin' Mission, baby
---> Play Bridge (x2)
---> Play Solo 1
---> No guitar over:
   Well, I am the Hexum, some call me Nick
   I live by the code of cosmic
   I've come to say, we're here to stay
   Utopian way we'll play today
   We've got the drive, we are so live
   Won't take a dive, we're gonna thrive
   We got a condition called ambition
   To the cosmic utopian thrivin' mission
---> Play Riff 1 over:
   Cosmic Utopian Thrivin' Mission, baby
   Cosmic Utopian Thrivin' Mission, baby
---> Play Bridge (x2)
---> Play Solo 2
---> Play Riff 2 over:
   Witness this, yo the pissed lyricist
   In your face celebratin' a brand new race
   We know colors are just brothers and some others
   Drive on the ginger but they failed to mention
   The consequence of no conscience
   You can't fool, I'm schoolin' you with the new school
   Now speakin on a round, step back mother ***er, I'm goin' to town
---> Play Riff 1 over:
   Cosmic Utopian Thrivin' Mission, baby
   Cosmic Utopian Thrivin' Mission, baby
---> Play Bridge (x1)
---> No guitar over:
   I feel good, Break it down, I got one more rhyme
   Yes, the verbs I got, they hit that spot
   The crowd is freakin' and bro I'm peekin'
   But when I'm on stage, you're havin' a fit
   But without my brothers, baby, I ain't ***
---> Play Riff 1 over:
   Cosmic Utopian Thrivin' Mission, baby
   Cosmic Utopian Thrivin' Mission, baby
---> Play Bridge (x1)
290 exibições

Comentários 0

Consegui tocarAinda não conseguiram tocar essa música. Seja o primeiro!
    Não consegui tocar
    Exibir acordes »
    publicidade
    fechar