Ceramic

36 Crazyfists

 36 Crazyfists
Tom: C
		
Album: Bitterness The Star
E*
Tabbed by Richie Elledge of Sunset Down.
Dropped C

Intro


-------------------------------------------------------------
-------------------------------------------------------------
-------------------------------------------------------------
-------------------------------------------------------------
3/5555-5-7/8/7/03--------------------------------------------
-------------------------------------------------------------


Pre Verse     4x


------------------|-------------4th-X------------------------
------------------|------------------------------------------
------3x----------|-----------10-/121212-------------------
------------------|-----------x-/-x-x-x---------------------
0000-888-7/8/7/03-|-0000-8888-8/--101010-------------------
0000-888----------|-0000-8888--------------------------------


Verse          1x 


------------------------------------------------------------------------
------------------------------------------------------------------------
------------------------------------------------------------------------
------------------------------------------------------------------------
---------7/8/7/03---------7/8/7/03---------7/8/7/03-8/101010121012^-----
00-00-0-0--------88-88-8-8--------55-55-5-5-----------------------------


End Verse   1x


-------------------------------------------------------------
-------------------------------------------------------------
-------------------------------------------------------------
-------------------------------------------------------------
----757^----878^----10810^----121012^------------------------
0000----8888----5555------0000-------------------------------


Chorus      4x


----------------|------------------------------------------------------
Play-1st-X------|------------------------------------------------------
-only-----------|------------------------------------------------------
----------------|------------------------------------------------------
----------------|333-000-88877787--------------------------------------
33300088877787--|333-000-88877787--------------------------------------


Fill        1x


-------------------------------------------------------------
-------------------------------------------------------------
-------------------------------------------------------------
-------------------------------------------------------------
00-0-00-0-00-0-00--------------------------------------------
00-0-00-0-00-0-00--------------------------------------------


Pre Verse   4x               Riff II
Verse       1x               Riff III
End Verse   1x               Riff IV
Chorus      4x               Riff V


Chorus pt.II  4x 


-------------------------------------------------------------
-------------------------------------------------------------
-------------------------------------------------------------
-------------------------------------------------------------
1212121212121212121212121212-888888-555555-------------------
1212121212121212121212121212-888888-555555-------------------


Fill         1x               Riff VI


Bridge       3x Clean


-------------------------------|-----2nd-Gtr-Dis--2x----------
-------------------------------|------------------------------
-------------------------------|------------------------------
-------------------------------|----Ring-Out-Pt---------------
12-------8-------5-------0-----|------------------------------
12-10X---8-10X---5-10x---0-10X-|-5/12----8----5----0----------


Chorus       4x               Riff V
Chorus pt.II 4x               Riff VII


End Song      4x


---------------------------------------------------------------
---------------------------------------------------------------
---------------------------------------------------------------
---------------------------------------------------------------
00-0-00-0-00-03030---------------------------------------------
00-0-00-0-00-03030---------------------------------------------

Comentários 0

Composição: Aiden / Alex Claire / Bobcat / JM Trevisan
Esse não é o compositor? Avise-nos.
Consegui tocarAinda não conseguiram tocar essa música. Seja o primeiro!
    Não consegui tocar
    Exibir acordes »
    publicidade
    fechar