Oração

A Banda Mais Bonita da Cidade

 A Banda Mais Bonita da Cidade Compositor: A Banda Mais Bonita da Cidade
Tom: G
		

  Intro 2x: D9  C9
E|---------------------------------|---------------------------------|
B|---5---5---5---5---5---5---5---5-|---3---3---3---3---3---3---3---3-|
G|---------------------------------|---------------------------------|   (2x)
D|---------------------------------|---------------------------------|
A|-5---5---5---5---5---5---5---5---|-3---3---3---3---3---3---3---3---|
E|---------------------------------|---------------------------------|


    D
Meu amor,
         A         Bm7
Essa é a última oração
       G
Pra salvar seu coração
Em
Coração não é tão simples quanto pensa
G
Nele cabe o que não cabe na dispensa
         D
Cabe o meu amor,
               C
Cabem três vidas inteiras,
            D
Cabe uma penteadeira,
  C
Cabe nós dois,
           D
Cabe até o meu amor...

(repete tudo)

       D                A                 Bm7               G
E|-----------------|-----------------|-----------------|--------------------------------|
B|---5---5---5---5-|---2---2---2---2-|---3---3---3---3-|---2---3---2---3---2---3---2--3-|
G|-----------------|-----------------|-----------------|--------------------------------|
D|-----------------|-----------------|-----------------|--------------------------------|
A|-5---5---5---5---|-0---0---0---0---|-2---2---2---2---|--------------------------------|
E|-----------------|-----------------|-----------------|-3---3---3---3---3---3---3------|

Comentários 95

  • Sibele Sibele: Postado em 30/10/2014 21:01

    Toco com qual CR?

  • livia livia: Postado em 16/10/2014 21:50

    essa musica e muito bonita concordo com a Lorena mais repete muito

  • Lorena Lorena: Postado em 19/03/2014 17:44

    adoro essa música

  • luannascimento1 luannascimento1: Postado em 27/08/2013 12:25

    "volta o cao arrependido, com suas orelhas tao fartas, com seu osso ruído,, e o rabo entre as patas"

  • cabradapeste1 cabradapeste1: Postado em 27/07/2013 11:38

    Essa música não foi feito pra cantar só :( ou você canta com a galera ou ela não vai ficar boa.

  • lipiii lipiii: Postado em 21/07/2013 15:00

    fente essa musica é mto facil pra pedir video aula..

  • matheussandrade matheussandrade: Postado em 10/01/2013 14:41

    repete 44 vezes

  • gabrielxbx gabrielxbx: Postado em 07/01/2013 13:23

    essa musica ela e boa pra tocar com 2 violões.
    Um faz o dedilhado e o outro faz as batidas

    • Leonardo Leonardo: Postado em 29/08/2014 19:43

      Verdade, vou fazer isso na escola no show de talentos!

  • kevin456 kevin456: Postado em 06/11/2012 20:55

    porque voces nao fazem uma videoaula de tablatura no cifraclub tem é so procurar

Exibindo 10 de 95 comentários Mostrar mais ver todos »
Composição: Louis de Barrichelli
Esse não é o compositor? Avise-nos.
Contribuição: hidekifernando Correções: Victor , squashzin e mais 12 »
Exibir acordes »
publicidade
fechar