Cifra Club

Oração

A Banda Mais Bonita da Cidade

Cifra: Principal
exibições 821.238
Tom: G

     Intro 2x: D9  C9
E|---------------------------------|---------------------------------|
B|---5---5---5---5---5---5---5---5-|---3---3---3---3---3---3---3---3-|
G|---------------------------------|---------------------------------|   (2x)
D|---------------------------------|---------------------------------|
A|-5---5---5---5---5---5---5---5---|-3---3---3---3---3---3---3---3---|
E|---------------------------------|---------------------------------|


D9
Meu amor,
         A         Bm7
Essa é a última oração
       G
Pra salvar seu coração
Em
Coração não é tão simples quanto pensa
G
Nele cabe o que não cabe na dispensa
        D9
Cabe o meu amor,
      C9
Cabem três vidas inteiras,
      D
Cabe uma penteadeira,
  C
Cabe nós dois,
           D
Cabe até o meu amor...

(repete tudo)

          D                A                 Bm7               G
E|-----------------|-----------------|-----------------|------------------|
B|---5---5---5---5-|-----------------|-----------------|---0---0---0---0--|
G|-----------------|---2---2---2---2-|---2---2---2---2-|------------------|
D|-----------------|-----------------|-----------------|------------------|
A|-5---5---5---5---|-0---0---0---0---|-2---2---2---2---|------------------|
E|-----------------|-----------------|-----------------|-3---3---3---3----|

  

       G5-
E|-----------------|
B|---2---3---2---3-|
G|-----------------|
D|-----------------|   (4x)
A|-----------------|
E|-3---3---3---3---|


       G5-
E|--------|
B|---2---3|
G|--------|
D|--------|
A|--------|
E|-3---3--|


E|---------------------------------|---------------------------------|
B|---5---5---5---5---5---5---5---5-|---3---3---3---3---3---3---3---3-|
G|---------------------------------|---------------------------------|   (2x)
D|---------------------------------|---------------------------------|
A|-5---5---5---5---5---5---5---5---|-3---3---3---3---3---3---3---3---|
E|---------------------------------|---------------------------------|

0 comentários

    mostrar mais comentários

    Conseguiu tocar?

    183tocaram4ainda não

    Grave um vídeo tocando Oração e mande pra gente!

    00:00 / 00:00
    outros vídeos desta música
    repetirqualidadeautomática
    Outro vídeos desta música
      00:00 / 00:00
      automática
      OK