Cifra Club

Só Tu És Santo

Morada

Cifra: Principal (violão e guitarra)
tom: A (forma dos acordes no tom de G) Capotraste na 2ª casa
[Intro] G9  C6(9) 

[Tab - Intro]

Parte 1 de 4
   G9
E|-----------------------------------------------------|
B|---------0-------0-------0---------------------------|
G|-----0-------0-------0-------0-----------------------|
D|---0---0---0---0---0---0---0---0---------------------|
A|-----------------------------------------------------|
E|-3---------------------------------------------------|

Parte 2 de 4
   G9
E|-----------------------------------------------------|
B|---------0-------0-------0---------------------------|
G|-----0-------0-------0-------0-----------------------|
D|---0---0---0---0---0---0---0---0---------------------|
A|-----------------------------------------------------|
E|-3---------------------------------------------------|

Parte 3 de 4
   C6(9)
E|-----------------------------------------------------|
B|---------0-------0-------0---------------------------|
G|-----0-------0-------0-------0-----------------------|
D|---0---0---0---0---0---0---0---0---------------------|
A|-3---------------------------------------------------|
E|-----------------------------------------------------|

Parte 4 de 4
   C6(9)
E|-----------------------------------------------------|
B|---------0-------0-------0---------------------------|
G|-----0-------0-------0-------0-----------------------|
D|---0---0---0---0---0---0---0---0---------------------|
A|-3---------------------------------------------------|
E|-----------------------------------------------------|

[Primeira parte]

[Tab - Primeira Parte]

Parte 1 de 8
   G9
E|-----------------------------------------------------|
B|---------0-------0-------0---------------------------|
G|-----0-------0-------0-------0-----------------------|
D|---0---0---0---0---0---0---0---0---------------------|
A|-----------------------------------------------------|
E|-3---------------------------------------------------|

Parte 2 de 8
   G9
E|-----------------------------------------------------|
B|---------0-------0-------0---------------------------|
G|-----0-------0-------0-------0-----------------------|
D|---0---0---0---0---0---0---0---0---------------------|
A|-----------------------------------------------------|
E|-3---------------------------------------------------|

Parte 3 de 8
   C6(9)
E|-----------------------------------------------------|
B|---------0-------0-------0---------------------------|
G|-----0-------0-------0-------0-----------------------|
D|---0---0---0---0---0---0---0---0---------------------|
A|-3---------------------------------------------------|
E|-----------------------------------------------------|

Parte 4 de 8
   C6(9)
E|-----------------------------------------------------|
B|---------0-------0-------0---------------------------|
G|-----0-------0-------0-------0-----------------------|
D|---0---0---0---0---0---0---0---0---------------------|
A|-3---------------------------------------------------|
E|-----------------------------------------------------|

Parte 5 de 8
   G9/B
E|-----------------------------------------------------|
B|---------0-------0-------0---------------------------|
G|-----0-------0-------0-------0-----------------------|
D|---0---0---0---0---0---0---0---0---------------------|
A|-2---------------------------------------------------|
E|-----------------------------------------------------|

Parte 6 de 8
   G9/B
E|-----------------------------------------------------|
B|---------0-------0-------0---------------------------|
G|-----0-------0-------0-------0-----------------------|
D|---0---0---0---0---0---0---0---0---------------------|
A|-2---------------------------------------------------|
E|-----------------------------------------------------|

Parte 7 de 8
   C6(9)            D4
E|-----------------------------------------------------|
B|---------0---------------0---------------------------|
G|-----0-------0-------0-------0-----------------------|
D|---0---0---0---0---0---0---0---0---------------------|
A|-3---------------5-----------------------------------|
E|-----------------------------------------------------|

Parte 8 de 8
   C6(9)
E|-----------------------------------------------------|
B|---------0-------0-------0---------------------------|
G|-----0-------0-------0-------0-----------------------|
D|---0---0---0---0---0---0---0---0---------------------|
A|-3---------------------------------------------------|
E|-----------------------------------------------------|

G9 
   Tudo está preparado aqui
C6(9)
      A casa e o meu coração também
G9/B                         
     Tu és o único motivo 
        C6(9)  D4  C6(9) 
Que me fez   che__gar
G9
   Os filhos já estão chegando aqui
C6(9)
      Agora, somos dois ou três ou mais
G9/B                                        
     Encontre meu coração 
                C6(9)  D4  C6(9)
Disposto a queimar    por ti

[Pré-Refrão]

          G9/B                 
Todos os versos e canções 
        C6(9)  
Que eu conseguir cantar
          G9/B                  
Todas as vezes quebrantado
     C6(9) 
Só quero te falar

         Em7(11)/B  D4/A      C6(9)/G
Teu é o reino e a glória pra sempre!
           Em7(11)/B  D4/A      
Teu é o domínio e o  poder
  C6(9)/G
Amém e amém!
         Em7(11)/B  D4/A      C6(9)/G
Teu é o reino e a glória pra sempre!
           Em7(11)/B  D4/A      
Teu é o domínio e o  poder
  C6(9)/G
Amém e amém!

( G9  C6(9)  G9/B  Am7(11)  G9/B  C6(9) )
( G9  C6(9)  G9/B  Am7(11)  G9/B  C6(9) )

[Refrão Final]

          G9              C6(9)
Só tu és santo! Só tu és santo!
                   G9/B
Não há outro como tu
                   Am7(11)
Não há outro como tu
                   G9/B
Não há outro como tu
                   C6(9)
Não há outro como Jesus

          G9              C6(9)
Só tu és santo! Só tu és santo!
                   G9/B
Não há outro como tu
                   Am7(11)
Não há outro como tu
                   G9/B
Não há outro como tu
                   C6(9)
Não há outro como Jesus
00:00 / 00:00
Outros vídeos desta música
Repetir
Outros vídeos desta música
Composição de Brunão Morada
3.101.227 exibições
  • Simplificar cifra
    • ½ Tom
    • A
    • Bb
    • B
    • C
    • Db
    • D
    • Eb
    • E
    • F
    • F#
    • G
    • Ab
  • Adicionar à lista

    0 comentários

    Ver todos os comentários

    Entre para oCifra Club PRO

    Tenha acesso a benefícios exclusivos no App e no Site

    • Chega de anúncios

    • Prioridade de compra em lançamentos

    • Mais recursos no app do Afinador

    • Atendimento Prioritário

    • Descontos nos produtos Cifra Club

    • Ajude a produzir mais conteúdo

    00:00 / 00:00
    Capítulos
    • Apresentação
    • Tocando a Música
    • Dicas Importantes
    • Acordes Introdução e Primeira Parte
    • Tocando Introdução e Primeira Parte
    • Ensinando Introdução e Primeira Parte
    • Acordes de Pré-Refrão
    • Tocando Pré-Refrão
    • Ensinando Pré-Refrão
    • Acordes Refrão Final
    • Tocando Refrão Final
    • Ensinando Refrão Final
    • Encerramento

    Cifra Club Pro

    Aproveite o Cifra Club com benefícios exclusivos e sem anúncios
    Cifra Club Pro
    Aproveite o Cifra Club com benefícios exclusivos e sem anúncios
    OK