Cifra Club

Oh, Quão Lindo Esse Nome É (What A Beautiful Name)

Ana Nóbrega

Cifra: Principal (violão e guitarra)
tom: D (forma dos acordes no tom de C) Capotraste na 2ª casa
[Intro] C  F2

[Tab - Intro]

   C                           F2
E|-----------------------------------------------------|
B|------1-----------1---------------1---------------1--|
G|--0------0--0--0-----0---0---0--------0---0---0------|
D|------------------------2---3---3---3---3---3---3----|
A|-3--3---3--3--3--3--3--------------------------------|
E|-----------------------------------------------------|

[Primeira Parte]

[Tab - Primeira Parte]

Parte 1 de 5
  C
E|-----------------------------------------------------|
B|-------1---------------1-----------------------------|
G|---0-------0---0---0-------0---0---------------------| (2x)
D|-----------------------------------------------------|
A|-3---3---3---3---3---3---3---3-----------------------|
E|-----------------------------------------------------|

Parte 2 de 5
   F2              Am7
E|-----------------------------------------------------|
B|-------1----------------1----------------------------|
G|---0-------0---0----0-------0---0--------------------|
D|-3---3---3---3---------------------------------------|
A|------------------0---0---0---0----------------------|
E|-----------------------------------------------------|

Parte 3 de 5

   G           G4  G   
E|-----------------------------------------------------|
B|-------0-------1-------0-----------------------------|
G|---0-------0-------0---------------------------------|
D|-----------------------------------------------------|
A|-----------------------------------------------------|
E|-3---3---3---3---3---3-------------------------------|

Parte 4 de 5

   Am7                     G/B
E|-----------------------------------------------------|
B|-------1---------------1--------0--------------------|
G|---0-------0---0---0--------0------------------------|
D|-----------------------------------------------------|
A|-0---0---0---0---0---0----2---2----------------------|
E|-----------------------------------------------------|

Parte 1 de 5

   C
E|-----------------------------------------------------|
B|-------1---------------1-----------------------------|
G|---0-------0---0---0-------0---0---------------------|
D|-----------------------------------------------------|
A|-3---3---3---3---3---3---3---3-----------------------|
E|-----------------------------------------------------|

Parte 2 de 5

   F2               Am7
E|-----------------------------------------------------|
B|-------1----------------1----------------------------|
G|---0-------0---0----0-------0---0--------------------|
D|-3---3---3---3---------------------------------------|
A|------------------0---0---0---0----------------------|
E|-----------------------------------------------------|

Parte 5 de 5

  G             
E|-----------------------------------------------------|
B|-------0---------------------------------------------|
G|---0-------0---0-------------------------------------|
D|-----------------------------------------------------|
A|-----------------------------------------------------|
E|-3---3---3---3---3-----------------------------------|

C
  No início eras a palavra
        F2        Am7   G
Um com Deus, o altíssimo
Am7      G/B           C
   O mistério de Tua glória
            F2    Am7   G
Cristo, em Ti se re_ve_lou

[Refrão]

[Tab - Refrão]

Parte 1 de 4

  C
E|-----------------------------------------------------|
B|-------1---------------1-----------------------------|
G|---0-------0---0---0-------0---0---------------------|
D|-----------------------------------------------------|
A|-3---3---3---3---3---3---3---3-----------------------|
E|-----------------------------------------------------|

Parte 2 de 4

  G             
E|-----------------------------------------------------|
B|-------0---------------0-----------------------------|
G|---0-------0---0---0-------0---0---------------------|
D|-----------------------------------------------------|
A|-----------------------------------------------------|
E|-3---3---3---3---3---3---3---3-----------------------|

Parte 3 de 4

   Am7              G
E|-----------------------------------------------------|
B|-------1----------------0----------------------------|
G|---0-------0---0----0-------0---0--------------------|
D|-----------------------------------------------------|
A|-0---0---0---0---------------------------------------|
E|------------------3---3---3---3----------------------|

Parte 4 de 4

   F2              
E|-----------------------------------------------------|
B|-------1---------------1-----------------------------|
G|---0-------0---0---0-------0---0---------------------|
D|-3---3---3---3---3---3---3---3-----------------------|
A|-----------------------------------------------------|
E|-----------------------------------------------------|

Parte 1 de 4 [Variação]

  C/E
E|-----------------------------------------------------|
B|-------1---------------1-----------------------------|
G|---0-------0---0---0-------0---0---------------------|
D|-----------------------------------------------------|
A|-----------------------------------------------------|
E|-0---0---0---0---0---0---0---0-----------------------|

Parte 2 de 4

  G             
E|-----------------------------------------------------|
B|-------0---------------0-----------------------------|
G|---0-------0---0---0-------0---0---------------------|
D|-----------------------------------------------------|
A|-----------------------------------------------------|
E|-3---3---3---3---3---3---3---3-----------------------|

Parte 3 de 4

   Am7              G
E|-----------------------------------------------------|
B|-------1----------------0----------------------------|
G|---0-------0---0----0-------0---0--------------------|
D|-----------------------------------------------------|
A|-0---0---0---0---------------------------------------|
E|------------------3---3---3---3----------------------|

Parte 4 de 4

   F2              
E|-----------------------------------------------------|
B|-------1---------------1-----------------------------|
G|---0-------0---0---0-------0---0---------------------|
D|-3---3---3---3---3---3---3---3-----------------------|
A|-----------------------------------------------------|
E|-----------------------------------------------------|

                         C
Oh, quão lindo esse nome é
                         G
Oh, quão lindo esse nome é
        Am7  G        F2
O nome de Jesus, meu Rei

                        C/E
Oh, quão lindo esse nome é
                   G
Maior que tudo ele é
                         Am7
Oh, quão lindo esse nome é
     G     F2
O nome de Jesus

[Segunda Parte]

F/C  C
       Deixou o céu para buscar-nos
       F      Am7  G
Veio pra nos resgatar
Am7      G/B              C
  Amor maior que o meu pecado
      F       Am7   G
Nada vai nos se_pa_rar

[Refrão]

                     C
Oh, quão maravilhoso é
                     G
Oh, quão maravilhoso é
        Am7  G        F/C
O nome de Jesus, meu rei

                     C/E
Oh, quão maravilhoso é
                   G
Maior que tudo ele é
                     Am7
Oh, quão maravilhoso é

      G    F/C
O nome de Jesus
                     Am7
Oh, quão maravilhoso é
      G    F/C
O nome de Jesus

[Ponte]

( F  G6  Am7  C/E )
( F  G6  Am7  C/E )
( F  G6  Am7  C/E )
( F  G6  Am7  C/E )

 F         G6     Am7      C/E
E|---3-1-1--0-0------3-1-1--0-0------------------------|
B|-1--------0---3--1--------1---0----------------------|
G|-2--------0------0--------0--------------------------| (4x)
D|-3---------------2-----------------------------------|
A|-----------------0-----------------------------------|
E|----------3---------------0--------------------------|
   ↓               ↓

            F7M/C             G
A morte venceste o véu Tu rompeste
           Am7         C/E
A tumba vazia agora está

           F7M/C               G
O céu Te adora, proclama Tua glória
              Am7            C/E
Pois ressuscitaste e vivo está

         F7M/C        G
És invencível, inigualável
            Am7         C/E
Hoje e pra sempre reinarás

         F7M/C          G
Teu é o reino Tua é a glória
          Am7         G
Acima de todo nome estás

[Refrão]

                   C
Poderoso esse nome é
                   G
Poderoso esse nome é
        Am7  G        F7M/C
O nome de Jesus, meu rei

                  C/E
Poderoso esse nome é
                    G
Mais forte que tudo é
                  Am7
Poderoso esse nome é
     G     F7M/C
O nome de Jesus

[Ponte]

         F7M/C        G
És invencível, inigualável
            Am7         C/E
Hoje e pra sempre reinarás

         F7M/C          G
Teu é o reino Tua é a glória
          Am7         C/E
Acima de todo nome estás

[Refrão]

                   C
Poderoso esse nome é
                    G
Poderoso esse nome é
        Am7  G        F7M/C
O nome de Jesus, meu rei

                  C/E
Poderoso esse nome é
                    G
Mais forte que tudo é
                   Am7
Poderoso esse nome é
      G    F7M/C
O nome de Jesus
                   Am7
Poderoso esse nome é
     G     F7M/C
O nome de Jesus
                   Am7
Poderoso esse nome é
     G     F7M/C
O nome de Jesus
00:00 / 00:00
Outros vídeos desta música
Repetir
Outros vídeos desta música
Composição de Ben Fielding / Brooke Ligertwood / Rafael Bitencourt / Toni Romero
Colaboração e revisão:
2.147.866 exibições
  • Simplificar cifra
    • ½ Tom
    • A
    • Bb
    • B
    • C
    • Db
    • D
    • Eb
    • E
    • F
    • F#
    • G
    • Ab
  • Adicionar à lista

    0 comentários

    Ver todos os comentários

    Entre para oCifra Club PRO

    Tenha acesso a benefícios exclusivos no App e no Site

    • Chega de anúncios

    • Prioridade de compra em lançamentos

    • Mais recursos no app do Afinador

    • Atendimento Prioritário

    • Descontos nos produtos Cifra Club

    • Ajude a produzir mais conteúdo

    00:00 / 00:00
    Capítulos
    • Apresentação
    • Tocando a Música
    • Acordes Introdução, Primeira Parte e Refrão
    • Ensinando Dedilhado Introdução
    • Tocando Primeira Parte
    • Ensinando Primeira Parte
    • Ensinando Refrão 1
    • Acordes Segunda Parte
    • Tocando Segunda Parte
    • Ensinando Ritmo Segunda Parte
    • Acordes Ponte
    • Tocando Ponte
    • Ensinando Dedilhado Ponte
    • Ensinando Ritmo 1 da Ponte
    • Ensinando Ritmo 2 da Ponte
    • Ensinando Ritmo 3 da Ponte
    • Encerramento

    Cifra Club Pro

    Aproveite o Cifra Club com benefícios exclusivos e sem anúncios
    Cifra Club Pro
    Aproveite o Cifra Club com benefícios exclusivos e sem anúncios
    OK