Cifra Club

Vem Me Buscar

Jefferson & Suellen

Cifra: Principal (violão e guitarra)
Selo Cifra Club: esta cifra foi revisada para atender aos critérios oficiais da nossa Equipe de Qualidade.
tom: Ebm (forma dos acordes no tom de Bm) Capotraste na 4ª casa
[Primeira Parte]

[Tab - Primeira Parte]

Parte 1 de 4
   Bm   
E|------------------------------------------|
B|------------------------------------------|
G|------------------------------------------|
D|-------0-------0-------0-------0----------|
A|---5-------5-------5-------5--------------|
E|-7---7---7---7---7---7---7---7------------|

Parte 2 de 4
   A11
E|------------------------------------------|
B|------------------------------------------|
G|------------------------------------------|
D|-------0-------0-------0-------0----------|
A|---4-------4-------4-------4--------------|
E|-5---5---5---5---5---5---5---5------------|

Parte 3 de 4
   G
E|------------------------------------------|
B|------------------------------------------|
G|------------------------------------------|
D|-------0-------0-------0-------0----------|
A|---2-------2-------2-------2--------------|
E|-3---3---3---3---3---3---3---3------------|

Parte 4 de 4
   Em7
E|------------------------------------------|
B|------------------------------------------|
G|------------------------------------------|
D|-------0-------0-------0-------0----------|
A|---2-------2-------2-------2--------------|
E|-0---0---0---0---0---0---0---0------------|
Parte 1 de 4
   Bm   
E|------------------------------------------|
B|------------------------------------------|
G|------------------------------------------|
D|-------0-------0-------0-------0----------|
A|---5-------5-------5-------5--------------|
E|-7---7---7---7---7---7---7---7------------|

Parte 2 de 4
   A11
E|------------------------------------------|
B|------------------------------------------|
G|------------------------------------------|
D|-------0-------0-------0-------0----------|
A|---4-------4-------4-------4--------------|
E|-5---5---5---5---5---5---5---5------------|

Parte 3 de 4 - variação
   Em7             G  
E|------------------------------------------|
B|------------------------------------------|
G|------------------------------------------|
D|-------0-------0-------0-------0----------|
A|---2-------2-------2-------2--------------|
E|-0---0---0---0---3---3---3---3------------|

Parte 4 de 4 - variação
   A11
E|------------------------------------------|
B|------------------------------------------|
G|------------------------------------------|
D|-------0-------0-------0-------0----------|
A|---4-------4-------4-------4--------------|
E|-5---5---5---5---5---5---5---5------------|

Bm                   A11
   És adorado entre nós
G                 Em7
  Tão desejado aqui
Bm                     A11
   Mas nada se comparará
                        Em7  G  A11
Com a glória que há de vir,  oh

[Segunda Parte]
        G7M                 A9    
Eu não sou daqui, pra casa voltarei
         G7M                A9    
Ele vem me buscar e com Ele eu irei
D9/F#   G7M                 A9    
Eu não sou daqui, pra casa voltarei
         G7M                A9    
Ele vem me buscar e com Ele eu irei

[Refrão]

[Tab - Refrão]

       Bm6(11)
E|-----0----0-0-----------------------------|
B|-----3----3-3-----------------------------|
G|-----0----0-0-----------------------------|
D|-2/4-4----4-4-----------------------------|
A|-----2------------------------------------|
E|------------------------------------------|

    G7M  Bm6(11)  A9
Yeshu____u________a
                F#m7(13)            Bm11 
O Messias aguardado, Ele vem me buscar
 D9/F# G7M  Bm6(11) A9
Ye___shu____u_______a
                F#m7(13)            Bm11 
O Messias aguardado, Ele vem me buscar

( Em  F#m7(13)  G7M  A )

[Tab - Passagem]

Parte 1 de 2
   Em                       F#m7(13)
E|-0--2-----2----2----2-----0--2-----2---2--|
B|-0--0-----0----0----0--0--0--0-----0---0--|
G|-0--0-----0----0----0-----2--2-----2---2--|
D|-2-----2---------2--------0-----0---------|
A|-2-----2---------2--------X-----X---------|
E|-0-----0---------0--------2-----2---------|

Parte 2 de 2
            G7M                  A
E|-------0--0--2-----2--5--------0----------|
B|-0--3-----3--------3--3----3---2----------|
G|-2--------0-----------0--------2----------|
D|-0--------0-----0-----0--------2----------|
A|-X--------X-----X--------------0----------|
E|-2--------3-----3-------------------------|

[Primeira Parte - variação]

[Tab - Primeira Parte - variação]

Parte 1 de 4
   Bm  
E|------------------------------------------|
B|------------------------------------------|
G|-4-------4---------------4----------------|
D|-0-------0---------------0----------------|
A|-5-5-5-5-5-5-5-5-5-5-5-5-5-5-5-5----------|
E|-7-7-7-7-7-7-7-7-7-7-7-7-7-7-7-7----------|

Parte 2 de 4
   A11
E|------------------------------------------|
B|------------------------------------------|
G|-2-------2---------------2----------------|
D|-0-------0---------------0----------------|
A|-4-4-4-4-4-4-4-4-4-4-4-4-4-4-4-4----------|
E|-5-5-5-5-5-5-5-5-5-5-5-5-5-5-5-5----------|

Parte 3 de 4
   G
E|------------------------------------------|
B|------------------------------------------|
G|-0-------0---------------0----------------|
D|-0-------0---------------0----------------|
A|-2-2-2-2-2-2-2-2-2-2-2-2-2-2-2-2----------|
E|-3-3-3-3-3-3-3-3-3-3-3-3-3-3-3-3----------|

Parte 4 de 4
   Em7
E|------------------------------------------|
B|------------------------------------------|
G|-0-------0---------------0----------------|
D|-0-------0---------------0----------------|
A|-2-2-2-2-2-2-2-2-2-2-2-2-2-2-2-2----------|
E|-0-0-0-0-0-0-0-0-0-0-0-0-0-0-0-0----------|

Parte 1 de 4
   Bm  
E|------------------------------------------|
B|------------------------------------------|
G|-4-------4---------------4----------------|
D|-0-------0---------------0----------------|
A|-5-5-5-5-5-5-5-5-5-5-5-5-5-5-5-5----------|
E|-7-7-7-7-7-7-7-7-7-7-7-7-7-7-7-7----------|

Parte 2 de 4
   A11
E|------------------------------------------|
B|------------------------------------------|
G|-2-------2---------------2----------------|
D|-0-------0---------------0----------------|
A|-4-4-4-4-4-4-4-4-4-4-4-4-4-4-4-4----------|
E|-5-5-5-5-5-5-5-5-5-5-5-5-5-5-5-5----------|

Parte 3 de 4 - variação
   Em7             G
E|------------------------------------------|
B|------------------------------------------|
G|-0-------0---------------0----------------|
D|-0-------0---------------0----------------|
A|-2-2-2-2-2-2-2-2-2-2-2-2-2-2-2-2----------|
E|-0-0-0-0-0-0-0-0-3-3-3-3-3-3-3-3----------|

Parte 4 de 4 - variação
   A11
E|------------------------------------------|
B|------------------------------------------|
G|-2-------2---------------2----------------|
D|-0-------0---------------0----------------|
A|-4-4-4-4-4-4-4-4-4-4-4-4-4-4-4-4----------|
E|-5-5-5-5-5-5-5-5-5-5-5-5-5-5-5-5----------|

Bm                   A11
   És adorado entre nós
G                 Em7
  Tão desejado aqui

Bm                     A11
   Mas nada se comparará
                        Em7  G  A11
Com a glória que há de vir,  oh

[Segunda Parte]

        G7M                 A9    
Eu não sou daqui, pra casa voltarei
         G7M                A9    
Ele vem me buscar e com Ele eu irei
D9/F#   G7M                 A9    
Eu não sou daqui, pra casa voltarei
         G7M                A9    
Ele vem me buscar e com Ele eu irei

[Refrão]

[Tab - Refrão]

       Bm6(11)
E|-----0----0-0-----------------------------|
B|-----3----3-3-----------------------------|
G|-----0----0-0-----------------------------|
D|-2/4-4----4-4-----------------------------|
A|-----2------------------------------------|
E|------------------------------------------|
    G7M  Bm6(11)  A9
Yeshu____u________a
                F#m7(13)            Bm11 
O Messias aguardado, Ele vem me buscar
 D9/F# G7M  Bm6(11) A9
Ye___shu____u_______a
                F#m7(13)             Bm11 
O Messias aguardado, Ele vem me buscar

[Terceira Parte]

[Tab - Terceira Parte]

E|------------------------------------------|
B|-8---7------------------------------------|
G|---------9---7----------------------------|
D|-5---4------------------------------------|
A|---------7---5----------------------------|
E|------------------------------------------|
     Em                         F#m7(13) 
Em breve Jesus no céu vai aparecer
                       Bm11
E todo joelho se dobrará
                       A
E toda língua confessará

         Em              F#m7(13)
Mas a igreja será arrebatada
              G7M            A  
Num piscar de olhos acontecerá
         E5              F#m7(13)             
Mas a igreja será arrebatada
              G7M            A  
Num piscar de olhos acontecerá

[Quarta Parte]

    G7M  A
Yeshu____a
    F#m7(13)  Bm11
Yeshu_________a
    G7M  A
Yeshu____a
    F#m7(13)  Bm11
Yeshu_________a

[Terceira Parte]
         Em              F#m7(13)
Mas a igreja será arrebatada
              G7M            A  
Num piscar de olhos acontecerá
         Em              F#m7(13)             
Mas a igreja será arrebatada
              G7M            A  
Num piscar de olhos acontecerá

[Refrão]

[Tab - Refrão]

       Bm6(11)
E|-----0----0-0-----------------------------|
B|-----3----3-3-----------------------------|
G|-----0----0-0-----------------------------|
D|-2/4-4----4-4-----------------------------|
A|-----2------------------------------------|
E|------------------------------------------|
    G7M  Bm6(11)  A9
Yeshu____u________a
                F#m7(13)            Bm11 
O Messias aguardado, Ele vem me buscar
 D9/F# G7M  Bm6(11) A9
Ye___shu____u_______a
                F#m7(13)            Bm11 
O Messias aguardado, Ele vem me buscar

[Final] Em  F#m7(13)  G7M  A

[Tab - Final]

Parte 1 de 2
   Em                       F#m7(13)
E|-0--2-----2----2----2-----0--2-----2---2--|
B|-0--0-----0----0----0--0--0--0-----0---0--|
G|-0--0-----0----0----0-----2--2-----2---2--|
D|-2-----2---------2--------0-----0---------|
A|-2-----2---------2--------X-----X---------|
E|-0-----0---------0--------2-----2---------|

Parte 2 de 2
            G7M                  A
E|-------0--0--2-----2--5--------0----------|
B|-0--3-----3--------3--3----3---2----------|
G|-2--------0-----------0--------2----------|
D|-0--------0-----0-----0--------2----------|
A|-X--------X-----X--------------0----------|
E|-2--------3-----3-------------------------|
Outros vídeos desta música
    3.625.147 exibições
    • Simplificar cifra
      • ½ Tom
      • Am
      • Bbm
      • Bm
      • Cm
      • C#m
      • Dm
      • Ebm
      • Em
      • Fm
      • F#m
      • Gm
      • G#m
    • Adicionar à lista

    Afinação da cifra

    Afinador online

      0 comentários

      Ver todos os comentários

      Entre para o Cifra Club PRO

      Tenha acesso a benefícios exclusivos no App e no Site

      • Chega de anúncios

      • Badges exclusivas

      • Mais recursos no app do Afinador

      • Atendimento Prioritário

      • Aumente seu limite de lista

      • Ajude a produzir mais conteúdo

      Capítulos
      • Apresentação
      • Dicas Iniciais
      • Tocando a Música
      • Acordes Primeira Parte
      • Ensinando Primeira Parte
      • Ensinando Segunda Parte
      • Acordes Refrão
      • Tocando Refrão
      • Ensinando Refrão
      • Ensinando Passagem
      • Acordes Primeira e Segunda Parte - Variação
      • Tocando Primeira e Segunda Parte - Variação
      • Ensinando Primeira Parte - Variação
      • Ensinando Segunda Parte - Variação
      • Tocando Refrão 2
      • Ensinando Refrão 2
      • Tocando Terceira e Quarta Parte
      • Ensinando Terceira Parte
      • Ensinando Quarta Parte
      • Tocando Terceira Parte, Refrão, Final
      • Ensinando Refrão
      • Ensinando Final
      • Encerramento

      Cifra Club Pro

      Aproveite o Cifra Club com benefícios exclusivos e sem anúncios
      Cifra Club Pro
      Aproveite o Cifra Club com benefícios exclusivos e sem anúncios
      Ops (: Contenido disponible sólo en portugués.
      OK