Cifra Club

Os Planos de Deus

Samuel Messias

Cifra: Principal (violão e guitarra)
Selo Cifra Club: esta cifra foi revisada para atender aos critérios oficiais da nossa Equipe de Qualidade.
tom: Db (forma dos acordes no tom de C) Capotraste na 1ª casa
[Intro] C  G/B  Am7  F7M(2)

[Tab - Intro]

Parte 1 de 2
E|---------3-0---0---------3-0---0---------3-0---0-----|
B|-1-3-1-3-1---3---1-3-1-3-1---3---1-3-1-3-1---3-------|
G|---------0-------0-------0-------0-------0-----------|
D|-----------------------------------------------------|
A|---------3-------3-------2-------2-------0-----------|
E|-----------------------------------------------------|

Parte 2 de 2
E|---------3-0---0-------------------------------------|
B|-1-3-1-3-1---3---1-----------------------------------|
G|-0-------0-------0-----------------------------------|
D|---------3-------3-----------------------------------|
A|-0---------------------------------------------------|
E|-----------------------------------------------------|

[Primeira Parte] 

C             G/B
   Bem sei eu     que tudo podes
Am7
    E nenhum dos Teus planos
 F7M(2)
Pode se frustrar
C                 G/B
  A vontade é Tua     e a minha vida

Em Tuas mãos está
Am7
    E nenhum dos Teus planos
 F7M(2)
Pode se frustrar
Am7                     Am7/G
    E nenhum dos Teus planos
 F
Pode se frustrar

[Refrão] 

[Tab - Refrão]

Parte 1 de 2
   C              G/B
E|------------------------------------------|
B|---------1--------------3-----------------|
G|-----0------0-------0-------0-------------|
D|---2---2--2-------0---0---0---------------|
A|-3--------------2-------------------------|
E|------------------------------------------|

Parte 2 de 2
   Am7            F7M(2)
E|------------------------0-----------------|
B|---------1----------1-------1-------------|
G|-----0------0-----0---0---0---------------|
D|---2---2--2-----3-------------------------|
A|-0----------------------------------------|
E|------------------------------------------|

               C                  G/B
Não se frustrarão, não se frustrarão
              Am7                F7M(2)
Os planos de Deus ninguém impedirá
                 C
Pode o vento soprar
                    G/B
A Terra pode se abalar
                  Am7
Mas os planos de Deus
               F7M(2)
Ninguém impedirá

[Solo] C  G/B  Am7  F 

[Tab - Solo]

E|---------3-0----0-------------3-0----0----|
B|-1-3-1-3------3-------1-3-1-3------3------|
G|------------------------------------------|
D|------------------------------------------|
A|------------------------------------------|
E|------------------------------------------|

E|---------3-0----0-------------3-0----0----|
B|-1-3-1-3------3-------1-3-1-3------3------|
G|------------------------------------------|
D|------------------------------------------|
A|------------------------------------------|
E|------------------------------------------|

[Primeira Parte] 

C            G/B
  Bem sei eu     que tudo podes
Am7
    E nenhum dos Teus planos
 F
Pode se frustrar
C                 G/B
  A vontade é Tua     e a minha vida

Em Tuas mãos está
Am7
    E nenhum dos Teus planos
 F
Pode se frustrar
Am7                     G
    E nenhum dos Teus planos
 F
Pode se frustrar

[Refrão] 

               C                  G/B
Não se frustrarão, não se frustrarão
              Am7                F
Os planos de Deus ninguém impedirá
                 C
Pode o vento soprar
                    G/B
A Terra pode se abalar
                  Am7
Mas os planos de Deus
               F
Ninguém impedirá
                    C
Ninguém pode te ajudar
                   G/B
Ninguém pode te levantar
                             Am7
Mas se Deus tem um plano contigo
               F
Ninguém impedirá

[Ponte] 

[Tab - Ponte]

Parte 1 de 4
   C              
E|------------------------------------------|
B|-------1----------------------------------|
G|-----0---------0-----0-----0--------------|
D|---2---------2-----2-----2----------------|
A|-3---------3-----3-----3------------------|
E|------------------------------------------|

Parte 2 de 4
   G/B
E|------------------------------------------|
B|-------3----------------------------------|
G|-----0---------0-----0-----0--------------|
D|---0---------0-----0-----0----------------|
A|-2---------2-----2-----2------------------|
E|------------------------------------------|

Parte 3 de 4
   Am7
E|------------------------------------------|
B|-------1----------------------------------|
G|-----0---------0-----0-----0--------------|
D|---2---------2-----2-----2----------------|
A|-0---------0-----0-----0------------------|
E|------------------------------------------|

Parte 4 de 4
   F7M(2)
E|-------0----------------------------------|
B|-----1---------1-----1-----1--------------|
G|---0---------0-----0-----0----------------|
D|-3---------3-----3-----3------------------|
A|------------------------------------------|
E|------------------------------------------|

                      C
Quando passares pelas águas
               G/B
Eu estarei contigo, filho
                      Am7
Quando passares pelo fogo
                  F7M(2)
Ele não te queimará
                  C
Pois Eu estou contigo, filho
             G/B
Eu estou contigo, filho
             Am7
Eu estou contigo, filho
             F
Eu estou contigo, filho

                    C
E se teu barco parecer

Que vai naufragar
           G/B
Está balançando pra lá e pra cá
               Am7
Está causando medo em teu coração
               F
Está causando dúvidas, cadê Jesus?

                      C
Mas olha só quem vem aí

Andando sobre as águas
                G/B
Parece que é Jesus

Andando sobre as águas
               Am7
Está dando uma ordem para o vento

Sou Eu dono do tempo
    F
Sou Eu dono daqui

Sou Eu dono do mar
    C
Sou Eu, sou Eu, sou Eu
                 G/B   Am7  F
Sou Eu, sou Eu, sou Eu

[Final] 

                    C
Ninguém pode te ajudar
                      G/B
Ninguém pode te levantar
                             Am7
Mas se Deus tem um plano contigo
               F
Ninguém impedirá
Outros vídeos desta música
1.483.008 exibições
  • Simplificar cifra
    • ½ Tom
    • A
    • Bb
    • B
    • C
    • Db
    • D
    • Eb
    • E
    • F
    • F#
    • G
    • Ab
  • Adicionar à lista

Afinação da cifra

Afinador online

    0 comentários

    Ver todos os comentários

    Entre para o Cifra Club PRO

    Tenha acesso a benefícios exclusivos no App e no Site

    • Chega de anúncios

    • Mais recursos no app do Afinador

    • Atendimento Prioritário

    • Aumente seu limite de lista

    • Ajude a produzir mais conteúdo

    Capítulos
    • Apresentação
    • Tocando a Música
    • Acordes da Intro
    • Tocando a Intro
    • Ensinando a Intro
    • Acordes da Primeira Parte
    • Tocando a Primeira Parte
    • Ensinando a Primeira Parte
    • Tocando o Refrão
    • Ensinando o Refrão
    • Dicas do Solo
    • Tocando o Solo
    • Ensinando a Base do Solo
    • Ensinando o Solo
    • Dicas da Repetição da Primeira Parte
    • Tocando a Repetição da Primeira Parte
    • Ensinando a Repetição da Primeira Parte
    • Dicas da Repetição do Refrão
    • Tocando a Repetição do Refrão
    • Ensinando a Repetição do Refrão
    • Dicas da Ponte
    • Tocando a Ponte
    • Ensinando a Ponte
    • Dicas do Refrão Final
    • Tocando o Final da Música
    • Encerramento

    Cifra Club Pro

    Aproveite o Cifra Club com benefícios exclusivos e sem anúncios
    Cifra Club Pro
    Aproveite o Cifra Club com benefícios exclusivos e sem anúncios
    OK