Cifra Club

Labareda

Jefferson & Suellen

Cifra: Principal (violão e guitarra)
tom: C#m
[Primeira Parte]

   C#m                         E
Ficai em jerusalém, até que do alto sejais
                 G#m
Revestidos de poder
         C#m
Eu mandarei o consolador
           E                      G#m
E quando vier ele dará graça e temor

[Pré-Refrão]

          A
Uns desistiram voltaram pra casa
      C#m                         E
Mas 120 ali ficaram, quando de repente

Ouviu se um som
               B
E dos quatros cantos um vento soprou

[Refrão]

     C#m
Vem como labareda de fogo
     A
Vem como labareda de fogo
   E
E pousa sobre cada um de nós
   G#m 
E pousa sobre cada um de nós

     C#m
Vem como labareda de fogo
     A
Vem como labareda de fogo
   E
E pousa sobre cada um de nós
   G#m     
E pousa sobre cada um de nós

[Solo] C#m  A   E  G#m
       C#m  A   E  G#m

   C#m               A
E|------------------------------------|
B|-2--4--5-2---------2--4--5-2--------|
G|------------------------------------|
D|------------------------------------|
A|------------------------------------|
E|------------------------------------|

   E               G#m
E|------------------------------------|
B|-0---------------0------------------|
G|-------------1----------------------|
D|------------------------------------|
A|------------------------------------|
E|------------------------------------|

   C#m               A
E|-9--11--12-9-------9--11--12-9------|
B|------------------------------------|
G|------------------------------------|
D|------------------------------------|
A|------------------------------------|
E|------------------------------------|

   E                 G#m
E|------------------------------------|
B|-12-----------9----12---------------|
G|------------------------------------|
D|------------------------------------|
A|------------------------------------|
E|------------------------------------|

[Pré-Refrão]

          A
Uns desistiram voltaram pra casa
      C#m                         E
Mas 120 ali ficaram, quando de repente

Ouviu se um som
               B
E dos quatros cantos um vento soprou

( C#m  A  E  G#m )
( C#m  A  E  G#m )

[Refrão]

     C#m
Vem como labareda de fogo
     A
Vem como labareda de fogo
   E
E pousa sobre cada um de nós
   G#m    
E pousa sobre cada um de nós

     C#m
Vem como labareda de fogo
     A
Vem como labareda de fogo
      E
E pousa sobre cada um de nós
      G#m    
E pousa sobre cada um de nós

[Ponte]

             F#m
Vem com teu fogo
                               C#m
Reacende a chama sopra teu vento
                         E
Vem nos inflama, aqui estamos senhor
        G#m
Aqui estamos senhor

             F#m
Vem com teu fogo
                               C#m
Reacende a chama sopra teu vento
                         E
Vem nos inflama, aqui estamos senhor
        G#m
Aqui estamos senhor

[Refrão]

     C#m
Vem como labareda de fogo
     B
Vem como labareda de fogo
      F#m
E pousa sobre cada um de nós
      G#m    
E pousa sobre cada um de nós

     C#m
Vem como labareda de fogo
     B
Vem como labareda de fogo
      F#m
E pousa sobre cada um de nós
      G#m    
E pousa sobre cada um de nós

     A
Vem como labareda de fogo
     B
Vem como labareda de fogo
      C#m
E pousa sobre cada um de nós
      B    
E pousa sobre cada um de nós
00:00 / 00:00
Outros vídeos desta música
Repetir
Outros vídeos desta música
Composição de Jeferson Rodrigo
463.230 exibições
    • ½ Tom
    • Am
    • Bbm
    • Bm
    • Cm
    • C#m
    • Dm
    • Ebm
    • Em
    • Fm
    • F#m
    • Gm
    • G#m
  • Adicionar à lista

    0 comentários

    Ver todos os comentários

    Entre para oCifra Club PRO

    Tenha acesso a benefícios exclusivos no App e no Site

    • Chega de anúncios

    • Prioridade de compra em lançamentos

    • Mais recursos no app do Afinador

    • Atendimento Prioritário

    • Descontos nos produtos Cifra Club

    • Ajude a produzir mais conteúdo

    00:00 / 00:00

    Cifra Club Pro

    Aproveite o Cifra Club com benefícios exclusivos e sem anúncios
    Cifra Club Pro
    Aproveite o Cifra Club com benefícios exclusivos e sem anúncios
    OK