Cifra Club

Mais Ninguém

Banda do Mar

Cifra: Principal (violão e guitarra)
exibições 482.478
Tom: Am
Intro:

E|---x--------x--------x--------x---------------------|
B|---x--------x--------x--------x---------------------|
G|---x--------x--------x--------x---------------------|
D|---x--------x--------x--------x---------------------|
A|---x--------x--------x--------x---------------------|
E|-5-x-0-3--5-x-0-3--5-x-0-3--5-x-0-3-----------------|

Primeira Parte – Primeira Estrofe:

Mesmo que não venha mais ninguém

Ficamos só eu e você

Fazemos a festa, somos do mundo

Sempre fomos bons de conversar

Primeira Parte – Primeira Estrofe:

Parte 1

E|---x--------x--------x--------x---------------------|
B|---x--------x--------x--------x---------------------|
G|---x--------x--------x--------x---------------------|
D|---x--------x--------x--------x---------------------|
A|---x--------x--------x--------x---------------------|
E|-5-x-0-3--5-x-0-3--5-x-0-3--5-x-0-3-----------------|

Parte 2

E|---x--------x--------x------------------------------|
B|---x--------x--------x------------------------------|
G|---x--------x--------x------------------------------|
D|---x--------x--------x------------------------------|
A|-5-x---5--3-x---3----x------------------------------|
E|---x-5------x-3----0-x-0-0--------------------------|

Primeira Parte – Segunda Estrofe:

         Am
Eu só espero que não venha mais ninguém

Aí eu tenho você só pra mim
 Dm              C
Roubo teu sono, quero teu tudo
    E7
Se mais alguém vier não vou notar

Refrão:

F               C
  Preciso de você
G           Am
  Pra me fazer feliz
F                   C
  Não quero mais ficar
  G  G#º
Aqui

F             C
  Preciso me ver só
G           Am
  Pra me fazer maior
F                   C
  Pois quando você vem
            E7
Eu fico melhor

Base Solo 2x: 

Am  Dm  C  E7

Solo:

Parte 1

E|----------------------------------------------------|
B|----------------------------------------------------|
G|-----------------------5-4--------------------------|
D|-5/7-7-7-5-----------7-----7------------------------|
A|-----------7--7-5-7----------5-5/7------------------|
E|----------------------------------------------------|

Parte 2

E|----------------------------------------------------|
B|----------------------------------------------------|
G|---------7b9-9r7-7-5-----7b9-9r7-5------------------|
D|-------5-------------7p5-----------7-5--------------|
A|-7\5-7----------------------------------------------|
E|----------------------------------------------------|

Parte 3

E|-------------5-8/10-8\5-5---------------------------|
B|-x-x-5h6p5-8--------------8-5-----------------------|
G|------------------------------7-5---5-4-------------|
D|----------------------------------7-----5-----------|
A|------------------------------------------7-5-5/7-5-|
E|----------------------------------------------------|

Primeira Parte – Primeira Estrofe:

Mesmo que não venha mais ninguém

Ficamos só eu e você

Fazemos a festa, somos do mundo

Sempre fomos bons de conversar

Primeira Parte – Segunda Estrofe:

         Am
Eu só espero que não venha mais ninguém

Aí eu tenho você só pra mim
 Dm              C
Roubo teu sono, quero teu tudo
    E7
Se mais alguém vier não vou notar

Refrão:

F               C
  Preciso de você
G           Am
  Pra me fazer feliz
F                   C
  Não quero mais ficar
  G  G#º
Aqui

F                 C
  Preciso me ver só
G           Am
  Pra me fazer maior
F                   C
  Pois quando você vem
            E7
Eu fico melhor

Repete Intro 2x:

Final:

 Am
Mesmo que não venha mais ninguém

Ficamos só eu e você
   Dm             C
Fazemos a festa, somos do mundo
 E7
Sempre fomos bons de conversar

0 comentários

mostrar mais comentários

Conseguiu tocar?

101 tocaram 6 ainda não

Grave um vídeo tocando Mais Ninguém e mande pra gente!

00:00 / 00:00
outros vídeos desta música
repetir qualidade Automático
Outros vídeos desta música
00:00 / 00:00
Automático
Capítulos
  • Tocando a música
  • Dicas Iniciais / Equipamentos
  • Tocando a Introdução
  • Introdução
  • Tocando a Primeira Parte
  • Primeira Parte: Primeira Estrofe - Parte 1 de 2
  • Primeira Parte: Primeira Estrofe - Parte 2 de 2
  • Acordes da Primeira Parte: Segunda Estrofe
  • Tocando a Primeira Parte: Segunda Estrofe
  • Ritmo da Primeira Parte: Segunda Estrofe
  • Acordes do Refrão
  • Tocando o Refrão
  • Solo - Parte 1 de 3
  • Tocando Solo
  • Solo - Parte 2 de 3
  • Solo - Parte 3 de 3
  • Dicas 2
  • Tocando o Final
  • Encerramento
  • Ficha Técnica
OK