Saudosa Maloca

Adoniran Barbosa

 Adoniran Barbosa
Tom: C
		
   Am

E|---------------------------------|
B|---------------------------------|
G|-----------0-3--2-0--------------|
D|-------0-2----------3-2-0--------|
A|-0-2-3--------------------3-2-0--|
E|---------------------------------|


    Dm
E|---------------------------------|
B|---------------------------------|
G|-2-0-----------------------------|
D|-----3-2-0-----------------------|
A|---------------------------------|
E|---------------------------------|


    Am
E|---------------------------------|
B|---------------------------------|
G|---------------------------------|
D|-2-0-----------------------------|
A|-----3-2-0-----------------------|
E|---------------------------------|


( F  E  Am  G  F  E  Am  E )

Am      E7             Am
Se o senhor não tá lembrado
     E7           Am
Dá licença de contar
     A7             Em7(5-)
Que aqui onde agora está
A7            Em7(5-)
Esse adifício alto
    A7       Em7(5-)
Era uma casa velha
       A7         Dm
Um palacete asobradado

Foi aqui seu moço
                       Am
Que eu Mato Grosso e o Joca
 B7                E7
Construimos nossa maloca
        A7
Mais  um dia
                Dm
Nem quero me  lembrá
                         Am
Veio os home com as ferramentas
 E7              Am
O dono mandô derrubá
     E7                Am
Peguemo tudo nossas coisas
                   A7
E fumos pro meio da rua
               Dm
Apreciá a demolição
                        Am
Que tristeza que nos sentia
                B7
Cada táuba que caía
             E7
Duia no coração
                   Dm
Mato Grosso quis gritá
                Am
Mas encima eu falei:
               A7
Os homens tá coa razão
                   Dm
Nós arranja outro lugá
                                  Am
Só se conformemo quando o Joca falou :
             B7                E7
"Deus da o frio conforme o cobertor"
             Dm                           Am
E hoje nóis pega a páia nas grama do jardim
         B7    E7             Am
E prá esquecê nóis cantemos assim:

           Dm             Am
Saudosa maloca, maloca querida  dim  dim
               F             E               Am
Donde nóis passemos dias feliz de nossa vida.
130.790 exibições

Comentários 2

  • B N B B N B: Postado em 21/01/2012 03:09

    isso E a Raiz do nosso Brasil...

  • loscher loscher: Postado em 15/10/2011 21:29

    Depressão mode - on

Composição: Adoniran Barbosa
Esse não é o compositor? Avise-nos.
Contribuição: Bill Correções: GuitarHero1984 , Lape e mais 3 »
Exibir acordes »
publicidade
fechar