Trem Das Onze

Demônios da Garoa

 Demônios da Garoa
Tom: C
		
(intro)

(primeira baixarias)

                                   Gm
E|------------------------------------------|
B|---3-2p1----------------------------------|
G|-2-------3-2p0----------------------------|
D|---------------4--1--0h1p0----------------|
A|---------------------------3p1p0----------|
E|---------------------------------3--------|


 Gm    G#º       Dm        Dm/C              E7               A7               D7
Zaaam zaaam zam zam zam zam, paiscalingundum, paiscalingundum, paiscalingundum...

(segunda baixaria)

   (D7)
E|--2----------------------------------------|
B|--1----------------------------------------|
G|--2----------------------------------------|
D|--0----0--2--4--0-2--4---------------------|
A|-------------------------------------------|
E|-------------------------------------------|


 Gm    G#º       Dm        Dm/C              E7               A7               Dm
Zaaam zaaam zam zam zam zam, paiscalingundum, paiscalingundum, paiscalingundum...

(terceira baixaria)

Dm
E|--1---------------------------------------|
B|--3---------------------------------------|
G|--2--2------------------------------------|
D|--0---------------0-----------------------|
A|--------0---2--4--------------------------|
E|------------------------------------------|


             Dm
Não posso ficar

Nem mais um minuto com você

Sinto muito amor
         Bb7  A7   Eb7 D7
Mas não pode ser
 Gm  A7      Dm
Moro em Jaçanã
                        Bb7
Se eu perder esse trem
          A7
Que sai agora às onze horas
                 Dm
Só amanhã de manhã

(repete a 1ª parte)

      D7
Além disso mulher
           Gm
Tem outra coisa
       Bb7
Minha mãe não dorme
                    A7
Enquanto eu não chegar
 Gm  G#º  Dm    Dm/C
Sou filho único
 E7          A7            Dm
Tenho minha casa pra olhar
                Eb7(9) (para repetir a partir da 1ª parte)
Não posso ficar
        ou      D7 (para repetir a introdução e acabar)

(última baixaria)


    Dm                 Eb7(9)
E|--1------------------1--------------------|
B|--3------------------2--------------------|
G|--2-----1p0----------0--------------------|
D|--0---------4-3-2-1-----------------------|
A|------------------------------------------|
E|------------------------------------------|


(ritmo)

    Gm
E|------------------------------------------|
B|-------3-----3---3-----3-----3---3--------|
G|-------3-----3---3-----3-----3---3--------|
D|---------5---5---5-------5---5---5--------|
A|------------------------------------------|
E|---3-------3-------3-------3--------------|
Texto Colunas
Alterar tom ½ tom ½ tom
afinação acordes na letra esconder tabs mais »

Comentários 13

  • luis1705 luis1705: Postado em 29/01/2014 13:26

    Demais !!! perfeita ! :))

  • luhmalik luhmalik: Postado em 17/12/2013 19:23

    Parabens... Ótima aula pra reforçar o aprendizado. Já consigo tocar perfeitamente

  • mjean mjean: Postado em 18/11/2013 11:20

    muito bem. felipe você toca e ensina muito bem. parabéns.

  • brunnoferraz brunnoferraz: Postado em 22/09/2013 17:37

    Muito bom!
    Pequena correção: no tempo 11m14s o acorde Dm/C, apesar de tocado certo, é indicado no desenho com o baixo na corda errada. Abs!

  • saroba66 saroba66: Postado em 15/02/2013 00:44

    Muito legal,gente! Facil de tocar e gostosa de ouvir! Me amarrei!!!

  • brancoofc brancoofc: Postado em 28/06/2012 18:08

    bom e que tem a video aula completa e simplificada
    =)

    bom tanto para violao quanto o chorinho no cavaco

  • powerpowd powerpowd: Postado em 31/03/2012 22:56

    legal parabéns pelo trabalho desenvolvido por vcs

  • chitarra chitarra: Postado em 19/03/2012 16:57

    Curti ai quem que mais aulas classicas como esta!!!
    Merci,Cifra Club........

    • guilherme guilherme : Postado em 01/01/2014 17:21

      Comentário removido

  • italovms italovms: Postado em 18/01/2012 16:38

    nossa muito legal.....

Exibindo 10 de 13 comentários Mostrar mais ver todos »
Composição: N. Jean / Rico Love
Esse não é o compositor? Avise-nos.
Contribuição: elendur Correções: pedro »
  1. Até Você Voltar - Henrique e Juliano Manteve-se 88.221 exibições
  2. Domingo de Manhã - Marcos e Belutti Manteve-se 78.414 exibições
  3. Cuida Bem Dela - Henrique e Juliano Manteve-se 51.633 exibições
  4. Recaídas - Henrique e Juliano Manteve-se 42.304 exibições
  5. Diz Pra Mim - Banda Malta Manteve-se 40.395 exibições
  6. Raridade - Anderson Freire Manteve-se 39.890 exibições
  7. Pra Você - Onze:20 Manteve-se 31.782 exibições
  8. Só Os Loucos Sabem - Charlie Brown Jr. Manteve-se 31.228 exibições
  9. Tudo Que Você Quiser - Luan Santana Manteve-se 30.990 exibições
  10. 11 Vidas - Lucas Lucco Manteve-se 29.535 exibições
  1. Henrique e Juliano- Manteve-se 273.256 exibições
  2. Jorge e Mateus- Manteve-se 223.372 exibições
  3. Legião Urbana- Manteve-se 205.070 exibições
  4. Charlie Brown Jr.- Manteve-se 148.581 exibições
  5. Luan Santana- Manteve-se 121.162 exibições
  6. Fernandinho- Manteve-se 118.717 exibições
  7. Bruno e Marrone- Manteve-se 114.184 exibições
  8. Marcos e Belutti- Manteve-se 96.389 exibições
  9. Thalles Roberto- Manteve-se 91.879 exibições
  10. The Beatles- Manteve-se 91.576 exibições
Exibir acordes »

Cifras e tabs

Fórum Cifra Club

Aprenda

Cifra Club News

Mais Serviços Cifra Club ID

Studio Sol

©1996 - 2014 Cifra Club · o primeiro, maior e mais acessado do Brasil · 341 mil músicas · 6.3 milhões pessoas cadastradas

publicidade
fechar