Adoração e Adoradores

Tu És Bom

293.791 exibições
Tom: D
Intro 2x: E  B/E  D/E  A/E

    E
Senhor, Tu és bom
    B/D# 	       D      A/C#
Tua misericórdia é pra sempre
    E
Senhor, Tu és bom
    B/D# 	       D      A/C#
Tua misericórdia é pra sempre

A 	          B9
Todos os povos te exaltarão
C	   D
De geração em geração

     E   B9
Te adorarei 
D        A
Aleluia! Aleluia!
     E   B9
Te adorarei 
	     D  A
Por tudo que és
     E   B9
Te adorarei 
D        A
Aleluia! Aleluia!
     E/G# B9
Te adorarei 
	     C  D
Por tudo que és

Deus é bom...		
(E  G  A) (E  D  A/C#)

       E   G     A
Deus é bom o tempo todo
         E   D  A/C#
O tempo todo,  Deus é bom (4x)

Instrumental: 
(C#5  D5  C#5  D5)
(C#5  D5  C#5  D5  E  E)
(C#5  D5  C#5  D5)
(C#5  D5  C#5  D5  G  E)

Solo: (E5  F#5  G5  A5)

[bateria]
Te adorarei Aleluia! Aleluia!
                         frase baixo: B - G - A - E - G - A - B - D - C# - A - G
                         frase violão: B - G - A - E - G - A - B - D - C# - A - G
Te adorarei por tudo que és

     E   B9
Te adorarei 
D        A
Aleluia! Aleluia!
     E/G# B9
Te adorarei 
	     C  D
Por tudo que és

	E
Deus é bom...

Frase baixo:


E|--------------------------------------------|
B|--------------------------------------------|
G|--------------------------------------------|
D|--------------------------------------------|
A|--2----0--------0--2--5--4--0---------------|
E|-----3----0--3--------------------3---------|


Frase violão:

E|--------------------------------------------|
B|--------------------------------------------|
G|--4---------------------4--7--6-------------|
D|-----5--7------5--7--------------7--5-------|
A|-------------7------------------------------|
E|--------------------------------------------|
    Composição: Israel HoughtonColaboração e revisão:
    • Milla
    • Gabriel
    • Alexandre
    • Davi
    • +9

    Comentários 5

    140 .
    • Ilton Ilton: Em 14/02/2015 15:46

      chata de tocar rs

    • Débora Débora: Em 13/03/2013 01:05

      vídeo aula!! o/

    • Débora Débora: Em 13/03/2013 01:04

      Vídeo aula!! o/

    • vitor vitor: Em 13/11/2012 21:03

      Video aula por favor

    • analais analais: Em 23/07/2011 12:33

      Muito boa, precisava de um video aula :D

    140 cancelar

    conseguiu tocar?

    • Gabriel
    • isabelaimw
    • teenyasmin
    • juniior07
    • alexjgon
    • santiago
    • onslaugh

    covers

    Grave um vídeo tocando Tu És Bom e mande pra gente!

    Ex.: http://www.youtube.com/watch?v=0IvSvIwGdwk
    ver covers de outras músicas »
    0:00 / 0:00

    Capítulos

      play/pausefechar subir/descer velocidade
      6ª corda E5ª corda A4ª corda D3ª corda G2ª corda B1ª corda E
        acordes
        publicidad
        fechar
        ok