Alice In Chains

Down In A Hole

83.954 exibições
Tom: C
Intro: 
    

      Am		 G5     D
E|--------------------3------2--------|
B|--0h1--------1--------3------3------|
G|------2--------2--------0------2----|
D|--------2--------2---------0-----0--| (2x)
A|--0-------0-------------------------|
E|--------------------3---------------|


(vocalização) Uuuuuuuhhhhhuuuuu!!!


      Am		 G5     D
E|--------------------3------2--------|
B|--0h1--------1--------3------3------|
G|------2--------2--------0------2----| (2x)
D|--------2--------2---------0-----0--|
A|--0-------0-------------------------|
E|--------------------3---------------|


Verso:

Am           G           D      Am    G     D
Bury Me Softly In This Womb
Am        G           D         Am    G     D
I Give This Part Of Me For You
Am           G          D
Sand Rains Down And Here I Sit
Am         G
Holding Rare Flowers
D     Am   G     D    Am    G     D
In A Tomb __________ In Bloom


      Am		 G5     D
E|--------------------3------2--------|
B|--0h1--------1--------3------3------|
G|------2--------2--------0------2----|
D|--------2--------2---------0-----0--|
A|--0-------0-------------------------|
E|--------------------3---------------|



Am                           G
Down In A Hole And I Don't Know
  D                     Am      G      D
If I Can Be Saved
Am         G
See My Heart I Decorate It
D
Like A Grave
Am           G                 D
You Don't Understand Who They
Am         G              D
Thought I Was Supposed To Be
Am           G    D
Look At Me Now A Man
Am         G         D
Who Won't Let Himself Be


      Asus2	     G5       D
E|--0-------------3--3-3--2--2-2--|
B|--0-1-0----0-0--3--3-3--3--3-3--|
G|--2-----2--2-0--0--0-0--2--2-2--|
D|--2--------2-0--0--0-0--0--0-0--|
A|--0--------0-0--x--x-x----------|
E|----------------3--3-3----------|


Refrão:

Dm            C9    G
Down In A Hole, Losin' My Soul
Dm           C9   G
Down In A Hole, Losin' Control
Dm  C    F  C   G
I'd Like To Fly
F                          Am
But My Wings Have Been So Denied


         Dm 	 C9    G
E|--0--1--0------0--0---0-------0-------|
B|--3--3----3-------3-----3-------3-----|
G|--2--2--------2---0--------0------0---| 
D|--0--0------------2--------0----------|
A|------------------3--------2----------|
E|---------------------------3----------|


     Dm    C    F     C		  G5
E|--0-----0----1-----0-0-0-0-0---0-0-0--|
B|--3-----1----1-----1-1-1-1-1---3-3-3--|
G|--2-----0----2-----0-0-0-0-0---0-0-0--|
D|--0-----2----3-----2-2-2-2-2---0-0-0--|
A|--0-----3----3-----3-3-3-3-3---x-x-x--|
E|-------------1-----------------3-3-3--|


      F
E|--1-1-1-1-1-1-1-----------------------|
B|--1-1-1-1-1-1-1----0h1-----1----------|
G|--2-2-2-2-2-2-2-------2------2--------|
D|--3-3-3-3-3-3-3---------2-------2-----|
A|--3-3-3-3-3-3-3----0------------------|
E|--1-1-1-1-1-1-1-----------------------|


Am         G           D            Am   G   D
Down In A Hole And They've Put All
Am        G         D
The Stones In Their Place
Am         G              D
I've Eaten The Sun So My Tongue
Am         G             D
Has Been Burned Of The Taste
Am             G
I Have Been Guilty
D           Am            G      D
Of Kicking Myself In The Teeth
Am           G      D
I Will Speak No More
Am       G           D
Of My Feelings Beneath


      Am		 G5     D
E|--------------------3------2--------|
B|--0h1--------1--------3------3------|
G|------2--------2--------0------2----|
D|--------2--------2---------0-----0--|
A|--0-------0-------------------------|
E|--------------------3---------------|


Refrão:

Dm            C9    G
Down In A Hole, Losin' My Soul
Dm           C9   G
Down In A Hole, Losin' Control
Dm  C    Am  C   G
I'd Like To Fly
F                          Am
But My Wings Have Been So Denied

Verso:

Am         G              D   Am         G            D
Bury Me Softly In This Womb (oh I want to be inside of you)
Am             G        D      Am      G           D
I Give This Part Of Me For You (oh I want to be inside of you)
Am            G          D      Am    G            D
Sand Rains Down And Here I Sit (oh I want to be inside of you)
Am            G        D
Holding Rare Flowers
Am     G        D        Am       G       D
In A Tomb.....In Bloom (oh I want to be inside.....)

Refrão:

Dm            C9    G
Down In A Hole, Losin' My Soul
Dm            C9   G
Down In A Hole, Feelin' So Small
Dm           C9   G
Down In A Hole, Losin' My Soul
Dm          C9    G
Down In A Hole, Out Of Control

Dm  C    Am  C   G
I'd Like To Fly
F                          Am
But My Wings Have Been So Denied
    Composição: Jerry CantrellColaboração e revisão:
    • Rafael
    • Alessandra
    • VooDoo

    Comentários 6

    • Thiago Thiago: Postado em 08/06/2015 10:45

      como q ta em C se de cara ja tem o acorde D??

    • Tiago Tiago: Postado em 25/09/2014 21:01

      relaxo do cifras Alice in Chains eh uma puta banda ...

    • raneycamisa10 raneycamisa10: Postado em 05/08/2014 04:35

      Impressionante a Anitta tem video aula dos shows das poderosas e o Alice In Chains não tem nenhum

    • Nícolas Nícolas: Postado em 04/11/2013 11:04

      eu vo precisa de video aula... hehee

    • camuh camuh: Postado em 19/03/2012 20:02

      grunge FOREVER!!!!!!!!!!!!!!!!!!

    • nathan nathan: Postado em 27/04/2011 21:57

      Videoaulas JÁ

    conseguiu tocar?

    • Lucas
    • Pedro
    • Danylo
    • Alvaro
    • Gonçalo
    • luisgustavogbt
    • Rafael
    • •••
    Ricna 27.497 visualizações
      ver covers de outras músicas »
      0:00 / 0:00

      Capítulos

        3 versões de baixoexibiçõescontribuição e correção
        2 versões de bateriaexibiçõescontribuição e correção
        play/pausefechar subir/descer velocidade
        6ª corda E5ª corda A4ª corda D3ª corda G2ª corda B1ª corda E
          acordes
          publicidad
          fechar
          ok