Down In A Hole

Alice In Chains

 Alice In Chains
Tom: C
		
Intro: 
    
     finger style

     Am		 G5     D
E|--------------------3------2--------|
B|--0h1--------1--------3------3------|
G|------2--------2--------0------2----|
D|--------2--------2---------0-----0--| (Várias Vezes)
A|--0-------0-------------------------|
E|--------------------3---------------|


Pré-Refrão:


     Asus2	     G       D
E|--0--------0-0--3--3-3--2--2-2--|
B|--0-1-0----0-0--3--3-3--3--3-3--|
G|--2-----2--2-2--0--0-0--2--2-2--|
D|--2--------2-2--0--0-0--0--0-0--| 8x
A|--0-------------2--2-2----------|
E|----------------3--3-3----------|

       Down in a hole and I don't know if I can be saved...

Refrão:


        Dm Dsus2	 Cadd9    G
E|--0--1--0--0-----0--0--0--------0-----|
B|--3--3--3--3--3-----3-----3--------3--|
G|--2--2--2--2--------0--------0--------| 4x
D|--0--0--0--0--------2--------0--------|
A|--0-----------------3--------2--------|
E|-----------------------------3--------|

       Down in a hole, losing my soul...

Play this once


  Dsus2 E  F  C5			G5
E|--0--0--1-------------------------------------------------|
B|--3--0--1-------------------------------------------------|
G|--2--1--2--5-5--5--5--5--5--5--5--------------------------|
D|--0--2--3--5-5--5--5--5--5--5--5--5-5---------------------|
A|--0--2--3--3-3--3--3--3--3--3--3--5-5--5-5-5-5b6r5-5-3-3--|
E|-----0--1-------------------------3-3--3-3-3-3b4r3-3-1-1--|

     I'd like to fly, but my wings have been so

 

  Asus2  Am	        G      D
E|--0----------------3-3----2---------|
B|--0-1-------1------3-3----3--3------|
G|--2---2-------2----0-0-0--2----2----|
D|--2-----2-------2--0-0-0--0------0--| 2x
A|--0-------0--------2-2-2------------|
E|-------------------3-3-3------------|

       denied...
 

E|----------13----------12----------10------------|
B|------15----------15----------13------7--7h8p7--|
G|--14----------14----------12--------------------| 8x
D|------------------------------------------------|
A|------------------------------------------------|
E|------------------------------------------------|

Comentários 5

  • Tiago Tiago: Postado em 25/09/2014 21:01

    relaxo do cifras Alice in Chains eh uma puta banda ...

  • raneycamisa10 raneycamisa10: Postado em 05/08/2014 04:35

    Impressionante a Anitta tem video aula dos shows das poderosas e o Alice In Chains não tem nenhum

  • Nícolas Nícolas: Postado em 04/11/2013 11:04

    eu vo precisa de video aula... hehee

  • camuh camuh: Postado em 19/03/2012 20:02

    grunge FOREVER!!!!!!!!!!!!!!!!!!

  • nathan nathan: Postado em 27/04/2011 21:57

    Videoaulas JÁ

Composição: Buck / Jerry Cantrell / Stayve Thomas
Esse não é o compositor? Avise-nos.
Contribuição: VooDoo
Exibir acordes »
publicidade
fechar