Pensando Em Você

Amado Batista

 Amado Batista Compositor: Amado Batista - Reginaldo Sodré
Tom: E
		

  B7
E|---------------------------------------------
E|---------------------------------------------
B|---------------------------------------------
G|---------------------------------------------
D|-5h6-5h6-5h6-5h6-6--5h6-5h6-5h6-5h6-4--------
A|---------------------------------------------
E|---------------------------------------------


  E
E|---------------------------------------------
B|---------------------------------------------
G|-2h3 2h3-2h3-2h3-3---2h3-2h3-2h3-2h3-1-------
D|---------------------------------------------
A|---------------------------------------------
E|---------------------------------------------


  B7
E|-3h4-3h4-3h4-3h4-4---3h4-3h4-3h4-3h4-2-------
B|---------------------------------------------
G|---------------------------------------------
D|---------------------------------------------
A|---------------------------------------------
E|---------------------------------------------



  E
E|-3-3-6-3-------------------------------------
B|-4-4-7-4-------------------------------------
G|---------------------------------------------


(fala)
B7                          E                                            B7
olha! eu estava muito longe e de repente apareceu você no meu pensamento e então parei parei e fiz
                 E
essa canção pra você

E                                                 B7
olha! nesta noite calma sinto em minha alma você aqui
                                                     E
Olha! ainda nesta noite continuo triste pensando em você
                                        E7             A
Olha! lembro como agora num romper da aurora ter você aqui
      E                                            E7        A          E       B7             E
Mas olha! que saudade imensa você pára e pensa e quer me esquecer não faça eu peço não me esqueça

(fala)
                                   B7                                       E
e aqui nesta distância que é tão grande trancado neste quarto de hotel eu penso
                                    B7                                    E
será que vale a pena estar tão longe se você que eu tanto amo está distante

                                                         B7
olha! eu viajo muito mas nem por um segundo posso te esquecer
                                                     E
olha! este amor eterno nem com um inferno pode se acabar
                                        E7              A
Olha! lembro como agora num romper da aurora ter você aqui
      E                                            E7        A          E       B7             E
Mas olha! que saudade imensa você para e pensa e quer me esquecer não faça eu peço não me esqueça

(fala)
                    B7                                E
olha! ainda nesta noite continuo triste pensando em você e você para e pensa e quer me
     B7
esqueçer
          E                   B7 E B7 E
olha! eu peço não me esqueça
17.078 exibições

Comentários 0

Composição: Amado Batista / Dave Keuning / David Pelsue / Nile Rogers / Reginaldo Sodré
Esse não é o compositor? Avise-nos.
Contribuição: leo31 Correções: markimcunha e mais 1 »
Exibir acordes »
publicidade
fechar