Raridade

Anderson Freire

 Anderson Freire
Tom: D
		
Intro:  D  A/C#  Bm7  A  G  D/F#  Em7

 D         A/C#		 Bm7
Não consigo ir além do teu olhar
          	  F#m           G
Tudo o que eu consigo é imaginar
         D/F#        Em7         A4
A riqueza que existe dentro de você
D           A/C#         Bm
O ouro eu consigo só admirar
                  F#m                G
Mas te olhando eu posso a Deus adorar
        D/F#          Em7        A4  A     Bm
Sua alma é um bem que nunca envelhecerá

         G            D
O pecado não consegue esconder
             A                   Bm
A marca de Jesus que existe em você
            G                 D
O que você fez ou deixou de fazer
             A                     Em7
Não mudou o inicio Deus escolheu você
       D/F#             G                 Bm7
Sua raridade não está naquilo que você possui
              Em7          D/F#    	      G
Ou que sabe fazer isso é mistério de Deus com você

            D                A/C#           Bm7
Você é um espelho que reflete a imagem do Senhor
                A                G
Não chore se o mundo ainda não notou
                      D/F#        Em7         A4 A
Já é o bastante Deus reconhecer o seu valor
            D                   A/C#          Bm7
Você é precioso mais raro que o ouro puro de Ofir
             A                      G
Se você desistiu  Deus não vai desistir
          D/F#         Em7
Ele está aqui pra te levantar
           A4   A         1ª vez: Bm7
Se o mundo te fizer cair 2ª vez solo: Em  G  D4 D C  Em7  G  A4  A  B4 B

O ouro eu consigo...

           E                  B/D#                 C#m
Você é um espelho que reflete a imagem do Senhor
                C#m/B          A
Não chore se o mundo ainda não notou
         E/G#      F#m       B4   B
Já é o bastante Deus reconhecer o seu valor
             E                 B/D#          C#m
Você é precioso mais raro que o ouro puro de Ofir
             C#m/B                 A
Se você desistiu  Deus não vai desistir
          E/G#           F#m
Ele está aqui pra te levantar
                 B4 B       ( F#m G#m você é um espelho...)  (terminar
Se o mundo te fizer cair

Final: A  E/G#  F#m7  Em   A  E/G#  F#m7 B4 B E

Solo e técnicas

/ = Slide
h = Hammer on
b = Bend
r = release
p = Pull Off
~~ = Vibrato

  Parte 1:


E|-----------------------------------------------------
B|-----------------------------------------------------
G|--------------10b11r10--12b13r12-12~~----------------
D|---------8h10-----------------------10~~--12--13~~---
A|-/8-8h10---------------------------------------------
E|-----------------------------------------------------


  Parte 2:


E|-----------------------------------------------------
B|--------11--8b9r8~~----8b9r8~~---/4-6b7--6b7--6~~----
G|------8----------------------------------------------
D|-8-10------------------------------------------------
A|-----------------------------------------------------
E|-----------------------------------------------------


  Parte 3:


E|-----------------------------------------------------
B|------------18b19-18~--20b21--21~--13~~--15--16~~----
G|-------15h17-----------------------------------------
D|-15h17-----------------------------------------------
A|-----------------------------------------------------
E|-----------------------------------------------------


  Parte 4:


E|------------------------------------------------------
B|--------13-15b16-15b16~~--15b16r15~~------------------
G|-----13-----------------------------------------------
D|--13--------------------------------------------------
A|------------------------------------------------------
E|------------------------------------------------------


  Parte 5:


E|------------------------------15--15----15--15---------
B|---------------------16b17~~--18b-18b---18b-18b--------
G|--------15h17--13h15-----------------------------------
D|--15h17------------------------------------------------
A|-------------------------------------------------------
E|-------------------------------------------------------
Texto Colunas
Alterar tom ½ tom ½ tom
afinação acordes na letra esconder tabs mais »
196.847 exibições

Comentários 24

  • caionascimento caionascimento: Postado em 29/08/2014 - 02:17

    vídeo aula do solo: youtube . com / watch?v=2slQUulgwTY

  • anapaula.deoliveira.376695 anapaula.deoliveira.376695: Postado em 26/08/2014 10:37

    essa musica é facil de tocar

  • Miqueias Miqueias: Postado em 22/08/2014 16:15

    Tom da

  • Leobrasiil Leobrasiil: Postado em 18/08/2014 14:49

    o tom da musica do clipe e D# !!!!!!!!!!!!!

  • igor.willy.1 igor.willy.1: Postado em 02/08/2014 09:59

    mt boa até que facial

  • Tiago Tiago: Postado em 25/07/2014 09:27

    meu DEUS musica tão linda e tão dificio d tocar

  • Yasmin Yasmin: Postado em 23/07/2014 19:14

    eu não consigo tocar, é impossível! *mão pequena*

  • kevinbianchi kevinbianchi: Postado em 18/07/2014 13:21

    falto tablatura

Exibindo 10 de 24 comentários Mostrar mais ver todos »
Composição: Anderson Freire
Esse não é o compositor? Avise-nos.
Contribuição: gustavofofao Correções: gustavofofao »
  1. Domingo de Manhã - Marcos e Belutti Manteve-se 98.258 exibições
  2. Até Você Voltar - Henrique e Juliano Manteve-se 53.974 exibições
  3. Pra Você - Onze:20 Manteve-se 50.133 exibições
  4. Recaídas - Henrique e Juliano Manteve-se 41.598 exibições
  5. Logo Eu - Jorge e Mateus Manteve-se 40.596 exibições
  6. Evidências - Chitãozinho & Xororó Manteve-se 37.100 exibições
  7. Só Os Loucos Sabem - Charlie Brown Jr. Manteve-se 31.698 exibições
  8. Give Me Love - Ed Sheeran Manteve-se 30.072 exibições
  9. Cuida Bem Dela - Henrique e Juliano Manteve-se 29.719 exibições
  10. Pais e Filhos - Legião Urbana Manteve-se 29.263 exibições
  1. Jorge e Mateus- Manteve-se 252.870 exibições
  2. Legião Urbana- Manteve-se 210.599 exibições
  3. Henrique e Juliano- Manteve-se 188.337 exibições
  4. Charlie Brown Jr.- Manteve-se 151.539 exibições
  5. Bruno e Marrone- Manteve-se 138.471 exibições
  6. Marcos e Belutti- Manteve-se 120.396 exibições
  7. Fernandinho- Manteve-se 119.285 exibições
  8. Luan Santana- Manteve-se 108.496 exibições
  9. Thalles Roberto- Manteve-se 94.265 exibições
  10. Victor e Leo- Manteve-se 92.036 exibições
Exibir acordes »

Cifras e tabs

Fórum Cifra Club

Aprenda

Cifra Club News

Mais Serviços Cifra Club ID

Studio Sol

©1996 - 2014 Cifra Club · o primeiro, maior e mais acessado do Brasil · 337 mil músicas · 6.2 milhões pessoas cadastradas

publicidade
fechar