Coração Valente

Anderson Freire

 Anderson Freire
Tom: E
		
C#m             F#m           C#m
Circunstancias dizem que não dá
C#m                     F#m7
Falam que você está tão perto de parar
B               B/D#                   E9
Coração valente é assim que quero hoje te chamar

C#m         F#m       C#m           C#m                        F#m7
É normal na guerra se ferir          e pra não morrer as vezes pensa em fugir
B                     B/A                  E/G#
Cego pelo medo não vê que o gigante e bem menor que a mão de Deus

C#7/11       C#7              F#m7
Não quero contar na história que você morreu
   Am6                   E
Se por um tempo você só adormeceu

   C#m                 F#m7                A7M
Coração por três dias Jesus parou de respirar
          D#m7/5b       G#
pra fazer você ressuscitar
       C#m             F#m7
tudo bem de carne você é
                    A7M
Mas sua estrutura é a fé
          G#7(11)     G#       A7M B C#m F#m7
coração valente você não pode parar

C#m         F#m       C#m           C#m                        F#m7
É normal na guerra se ferir          e pra não morrer as vezes pensa em fugir
B                     B/A                   E9
Cego pelo medo não vê que o gigante é bem menor que a mão de Deus

C#7/11           C#7           F#m7
Não quero contar na história que você morreu
   Am6                   E
Se por um tempo você só adormeceu

   C#m               F#m7                A7M
Coração por três dias Jesus parou de respirar
          D#m7/5b       G#
pra fazer você ressuscitar
       C#m             F#m7
tudo bem de carne você é
                    A7M
Mais sua estrutura é a fé
          G#7(11)     G#
coração valente você não pode parar


   Solo: A  B  C#m A  B  G#
E|--------------------------------------------16---------------------------------------14-|
B|-------------7-9--9-7---7---7--10--10-10-10------17-16-14-12-15-14-12----14--16--17-----|
G|-6--6--6-8-9----------8-----------------------------------------------14----------------|
D|----------------------------------------------------------------------------------------|
A|----------------------------------------------------------------------------------------|
E|----------------------------------------------------------------------------------------|



E|-16----------------16---------------|
B|------17--16--14---------17--16--14-|
G|------------------------------------|
D|------------------------------------|
A|------------------------------------|
E|------------------------------------|



E|-16-20-16-20-16-20-16~-|
B|-----------------------|
G|-----------------------|
D|-----------------------|
A|-----------------------|
E|-----------------------|



    C#m               F#m7                A7M
Coração por três dias Jesus parou de respirar
          D#m7/5b       G#
pra fazer você ressuscitar
       C#m             F#m7
tudo bem de carne você é
                   A7M
Mas sua estrutura é a fé
          G#7(11)     G#        C#m
coração valente você não pode parar

Comentários 17

  • anapaula.deoliveira.376695 anapaula.deoliveira.376695: Postado em 03/11/2014 11:02

    essa musica é muito bonita,mas precisa de um video de aula pf

  • Lourenzo Lourenzo: Postado em 12/06/2014 08:59

    Video aula !! pf

    • eder eder: Postado em 07/07/2014 23:30

      parabens

  • tilandia tilandia: Postado em 28/05/2014 00:09

    lindaa música

  • thiago.evillar thiago.evillar: Postado em 07/10/2013 11:48

    legal

  • Kennedy Kennedy: Postado em 07/05/2013 11:16

    muito bela musica!!!!

  • andresantos-2011@bol.com.br andresantos-2011@bol.com.br: Postado em 12/03/2013 22:59

    consegui tocar

  • Rai Duarte Rai Duarte: Postado em 27/02/2013 11:24

    se quiser o solo tirei ele ficou mt bacana tentei por o mais parecido possível posso enviar a tab so mandar email rai.duarte.rj@hotmail. com

  • haroldo20111 haroldo20111: Postado em 05/07/2012 08:58

    Olá Irmãos em Cristo Jesus. Tirei de ouvido o solo e passei tudo p/ Guitar Pro espero que a equipe do sit aceite. A paz de Jesus a todos =)

  • ricrdo ricrdo: Postado em 08/05/2012 12:15

    kd o solo?

Exibindo 10 de 17 comentários Mostrar mais ver todos »
Composição: Anderson Freire
Esse não é o compositor? Avise-nos.
Contribuição: raphahand Correções: Kim , lucas e mais 12 »
Exibir acordes »
publicidade
fechar